Oops, an error
Loading. Please wait.

Creepin Up The Backstairs Tab

version 5
version 5

Whole song

Interactive

11,842 views 9 this week
6 commentsread comments
1 2 3 4 5
excellent!
x 7
add to favorites
launch autoscroll
font size
0
reset
how to read this tab
guitar tuner
Autoscroll
slow
fast
+/-
esc
set tempo
stop
Help us to improve Ultimate-Guitar.com Take our survey!
×
Author
Difficulty
Slurms 457
intermediate
-------------------------------------------------------------------------------
                        Creeping Up The Backstairs - The Fratellis
-------------------------------------------------------------------------------
Tabbed by: slurms
Email: slurms.mckenzie@hotmail.com

Tuning:EADGBE

I Noticed that no one had tabbed it fully with both guitars so I thought Id tab the 
I know, its not perfect but I know It works as I have played this song live.


Intro Part 1 - No Lyrics (One Guitar)
e|---3---6---5---4-|---3---6-----5---4-|----|
B|---3---6---5---4-|---3---6-----5---4-|----|
G|---4---7---6---5-|---4---7-----6---5-|----|
D|-5---8---7---6---|-5---8---xx--7---6-|-x2-|
A|-5---8---7---6---|-5---8---xx--7---6-|----|
E|-3---6---5---4---|-3---6---xx--5---4-|----|


Intro Part 2 - (Both Guitars)
e|----------------------------------|----|
B|----------------------------------|----|
G|----------------------------------|----|
D|-5-5-8-8-7-7-6-6--5-5-8-8-xx-7-6--|-x2-|
A|-5-5-8-8-7-7-6-6--5-5-8-8-xx-7-6--|----|
E|-3-3-6-6-5-5-4-4--3-3-6-6-xx-5-4--|----|




Verse - She Said I`m Rosie... (Lead Guitar)
e|-----3-----------0-----------0-----------2------|----|
B|---0---0-------0---0-------2---2-------3---3----|----|
G|-0-------0---1-------1---2-------2---2-------2--|----|
D|------------------------------------------------|-x6-|
A|------------------------------------------------|----|
E|------------------------------------------------|----|
Verse - She Said I`m Rosie... (Rhythm Guitar)
e|------------------------------------------------|----|
B|------------------------------------------------|----|
G|-------------------------------------7-7-7777---|----|
D|-5-5-5555----2-2-2222----7-7-7777----7-7-7777---|-x6-|
A|-5-5-5555----2-2-2222----7-7-7777----5-5-5555---|----|
E|-3-3-3333----0-0-0000----5-5-5555---------------|----|



Pre Chorus - Don`t You Say... (Lead Guitar)
e|-3---3----7---7----6-6-6-6----------7-10p7---|----|
B|-3---3----9---9----6-6-6-6-----8h10-------8--|----|
G|-4---4----9---9----7-7-7-7-------------------|----|
D|---------------------------------------------|-x4-|
A|---------------------------------------------|----|
E|---------------------------------------------|----|
Pre Chorus - Don`t You Say... (Rhythm Guitar)
e|---------------------------------------------|----|
B|---------------------------------------------|----|
G|----------9---9------------------------------|----|
D|-5---5----9---9----8-8-8-8-----7-7-7-7-------|-x4-|
A|-5---5----7---7----8-8-8-8-----7-7-7-7-------|----|
E|-3---3-------------6-6-6-6-----5-5-5-5-------|----|




Chorus Part 1 - Creeping Up The... (One Guitar First Part, Both Second Part)
e|---3---6---5---4-|---3---6-----5---4-|----|
B|---3---6---5---4-|---3---6-----5---4-|----|
G|---4---7---6---5-|---4---7-----6---5-|----|
D|-5---8---7---6---|-5---8---xx--7---6-|-x2-|
A|-5---8---7---6---|-5---8---xx--7---6-|----|
E|-3---6---5---4---|-3---6---xx--5---4-|----|
Chorus Part 2 - Creeping Up The...
e|----------------------------------|----|
B|----------------------------------|----|
G|----------------------------------|----|
D|-5-5-8-8-7-7-6-6--5-5-8-8-xx-7-6--|-x2-|
A|-5-5-8-8-7-7-6-6--5-5-8-8-xx-7-6--|----|
E|-3-3-6-6-5-5-4-4--3-3-6-6-xx-5-4--|----|




Verse - Well I See Yellow Fingers... (Lead Guitar)
e|-----3-----------0-----------0-----------2------|----|
B|---0---0-------0---0-------2---2-------3---3----|----|
G|-0-------0---1-------1---2-------2---2-------2--|----|
D|------------------------------------------------|-x6-|
A|------------------------------------------------|----|
E|------------------------------------------------|----|
Verse - Well I See Yellow Fingers... (Rhythm Guitar)
e|------------------------------------------------|----|
B|------------------------------------------------|----|
G|-------------------------------------7-7-7777---|----|
D|-5-5-5555----2-2-2222----7-7-7777----7-7-7777---|-x6-|
A|-5-5-5555----2-2-2222----7-7-7777----5-5-5555---|----|
E|-3-3-3333----0-0-0000----5-5-5555---------------|----|




Pre Chorus - Don`t You Say... (Lead Guitar)
e|-3---3----7---7----6-6-6-6----------7-10p7---|----|
B|-3---3----9---9----6-6-6-6-----8h10-------8--|----|
G|-4---4----9---9----7-7-7-7-------------------|----|
D|---------------------------------------------|-x4-|
A|---------------------------------------------|----|
E|---------------------------------------------|----|
Pre Chorus - Don`t You Say... (Rhythm Guitar)
e|---------------------------------------------|----|
B|---------------------------------------------|----|
G|----------9---9------------------------------|----|
D|-5---5----9---9----8-8-8-8-----7-7-7-7-------|-x4-|
A|-5---5----7---7----8-8-8-8-----7-7-7-7-------|----|
E|-3---3-------------6-6-6-6-----5-5-5-5-------|----|



Chorus Part 1 - Creeping Up The... (One Guitar First Part, Both 2nd & 3rd)
e|---3---6---5---4-|---3---6-----5---4-|----|
B|---3---6---5---4-|---3---6-----5---4-|----|
G|---4---7---6---5-|---4---7-----6---5-|----|
D|-5---8---7---6---|-5---8---xx--7---6-|-x2-|
A|-5---8---7---6---|-5---8---xx--7---6-|----|
E|-3---6---5---4---|-3---6---xx--5---4-|----|
Chorus Part 2 - Creeping Up The...
e|----------------------------------|----|
B|----------------------------------|----|
G|----------------------------------|----|
D|-5-5-8-8-7-7-6-6--5-5-8-8-xx-7-6--|-x2-|
A|-5-5-8-8-7-7-6-6--5-5-8-8-xx-7-6--|----|
E|-3-3-6-6-5-5-4-4--3-3-6-6-xx-5-4--|----|
Chorus Part 3 - Creeping Up The...
e|----------------------------------|----|
B|----------------------------------|----|
G|-5-5-8-8-7-7-6-6--5-5-8-8-xx-7-6--|-x2-|
D|-5-5-8-8-7-7-6-6--5-5-8-8-xx-7-6--|----|
A|-3-3-6-6-5-5-4-4--3-3-6-6-xx-5-4--|----|
E|----------------------------------|----|




Pre Chorus - Don`t You Say... (Lead Guitar)
e|-3---3----7---7----6-6-6-6----------7-10p7---|----|
B|-3---3----9---9----6-6-6-6-----8h10-------8--|----|
G|-4---4----9---9----7-7-7-7-------------------|----|
D|---------------------------------------------|-x4-|
A|---------------------------------------------|----|
E|---------------------------------------------|----|
Pre Chorus - Don`t You Say... (Rhythm Guitar)
e|---------------------------------------------|----|
B|---------------------------------------------|----|
G|----------9---9------------------------------|----|
D|-5---5----9---9----8-8-8-8-----7-7-7-7-------|-x4-|
A|-5---5----7---7----8-8-8-8-----7-7-7-7-------|----|
E|-3---3-------------6-6-6-6-----5-5-5-5-------|----|




Chorus Part 1 - Creeping Up The... (One Guitar First Part, Both Second Part)
e|---3---6---5---4-|---3---6-----5---4-|----|
B|---3---6---5---4-|---3---6-----5---4-|----|
G|---4---7---6---5-|---4---7-----6---5-|----|
D|-5---8---7---6---|-5---8---xx--7---6-|-x2-|
A|-5---8---7---6---|-5---8---xx--7---6-|----|
E|-3---6---5---4---|-3---6---xx--5---4-|----|
Chorus Part 2 - Creeping Up The...
e|----------------------------------|----|
B|----------------------------------|----|
G|----------------------------------|----|
D|-5-5-8-8-7-7-6-6--5-5-8-8-xx-7-6--|-x4-|
A|-5-5-8-8-7-7-6-6--5-5-8-8-xx-7-6--|----|
E|-3-3-6-6-5-5-4-4--3-3-6-6-xx-5-4--|----|


| /  slide up
| \  slide down
| h  hammer-on
| p  pull-off
| ~  vibrato
| +  harmonic
| x  Mute note
===============================================================================
Suggest correction
What's this?
You can suggest a correction to this tab. Community and Mods will review your correction and vote to approve or reject it.
comments
print report bad tab
6 comments total. Showing first comments.
0 reply
gibson! 477 wrote on December 26 2007, 12:03 pm

good tab!

0 reply
stef123 1,384 wrote on September 25 2008, 03:52 pm

better than the other tab good job

5 stars

+1 reply
wiredguitarist1 89 wrote on September 29 2008, 02:42 pm

I think the verse for the first guitar goes something more like this:

Verse - She Said I`m Rosie... (Lead Guitar)
e|-----3-----------10-----------5------10-10--8-8--7-7--5-5--|----|
B|---3---3-------9----9-------5---5-----7--7--7-7--7-7--7-7--|----|
G|-4-------4---9--------9---6-------6---7--7--7-7--7-7--7-7--|----|
D|-----------------------------------------------------------|-x6-|
A|-----------------------------------------------------------|----|
E|-----------------------------------------------------------|----|

guest
You may want to rate the tab now too:
select rating
Please do not post tabs as comments. Select "correction" instead!