Oops, an error
Loading. Please wait.

Cuntry Boys And City Girls Tab

7,177 views 3 this week
4 commentsread comments
1 2 3 4 5
please rate
add to favorites
launch autoscroll
font size
0
reset
how to read this tab
guitar tuner
Autoscroll
slow
fast
+/-
esc
set tempo
stop
Help us to improve Ultimate-Guitar.com Take our survey!
×
Difficulty
novice
F#7: 242322

B: 799877

F#5: 244

B5: 799

G#m: 466444

F#: 244322


intro:

E|-----|--7--7-7-7---------7--7-7-7-7--------|
B|-----|--7--7-7-7---------7--7-7-7-7--------|
G|-----|--8--8-8-8---------8--8-8-8-8---(x2)-|
D|-----|--9--9-9-9---------9--9-9-9-9--------|
A|--9--|--9--9-9-9----4----9--9-9-9-9--------|
e|--7--|--7--7-7-7----2----7--7-7-7-7--------|

E|----------------------|
B|----------------------|
G|-----------------(x2)-|
D|----------------------|
A|----------------------|
e|---7-7-7-6-5/1--------|


There is a strange strum pattern on the verse, so you'll have to listen to the song to figure it out.

But the chords are just B and F#7 repeatedly.

chorus:

E|----------|----------|
B|----------|----------|
G|----------|----------|
D|--9-------|--4-------| (x2)
A|--9--(x7)-|--4--(x7)-|
e|--7-------|--2-------|

E|-----|--7--7-7-7---------7--7-7-7-7--------|
B|-----|--7--7-7-7---------7--7-7-7-7--------|
G|-----|--8--8-8-8---------8--8-8-8-8---(x2)-|
D|-----|--9--9-9-9---------9--9-9-9-9--------|
A|--9--|--9--9-9-9----4----9--9-9-9-9--------|
e|--7--|--7--7-7-7----2----7--7-7-7-7--------|

E|----------|----------|
B|----------|----------|
G|----------|----------|
D|--9-------|--4-------| (x2)
A|--9--(x7)-|--4--(x7)-|
e|--7-------|--2-------|

E|-----|--7--7-7-7---------7--7-7-7-7--------|
B|-----|--7--7-7-7---------7--7-7-7-7--------|
G|-----|--8--8-8-8---------8--8-8-8-8---(x4)-|
D|-----|--9--9-9-9---------9--9-9-9-9--------|
A|--9--|--9--9-9-9----4----9--9-9-9-9--------|
e|--7--|--7--7-7-7----2----7--7-7-7-7--------|

E|----------------------|
B|----------------------|
G|-----------------(x3)-|
D|----------------------|
A|----------------------|
e|---7-7-7-6-5/1--------|


Verse


chorus:

E|----------|----------|
B|----------|----------|
G|----------|----------|
D|--9-------|--4-------| (x2)
A|--9--(x7)-|--4--(x7)-|
e|--7-------|--2-------|

E|-----|--7--7-7-7---------7--7-7-7-7--------|
B|-----|--7--7-7-7---------7--7-7-7-7--------|
G|-----|--8--8-8-8---------8--8-8-8-8---(x2)-|
D|-----|--9--9-9-9---------9--9-9-9-9--------|
A|--9--|--9--9-9-9----4----9--9-9-9-9--------|
e|--7--|--7--7-7-7----2----7--7-7-7-7--------|

E|----------|----------|
B|----------|----------|
G|----------|----------|
D|--9-------|--4-------| (x2)
A|--9--(x7)-|--4--(x7)-|
e|--7-------|--2-------|


E|-----|--7--7-7-7---------7--7-7-7-7--------|
B|-----|--7--7-7-7---------7--7-7-7-7--------|
G|-----|--8--8-8-8---------8--8-8-8-8---(x2)-|
D|-----|--9--9-9-9---------9--9-9-9-9--------|
A|--9--|--9--9-9-9----4----9--9-9-9-9--------|
e|--7--|--7--7-7-7----2----7--7-7-7-7--------|

E|--4-------|--2-------|------|-4-|
B|--4-------|--2-------|------|-4-|
G|--4--(x2)-|--3--(x5)-|-(x4)-|-4-|
D|--6-------|--4-------|------|-6-|
A|--6-------|--4-------|------|-6-|
e|--4-------|--2-------|------|-4-|


solo

chorus:

E|----------|----------|
B|----------|----------|
G|----------|----------|
D|--9-------|--4-------| (x2)
A|--9--(x7)-|--4--(x7)-|
e|--7-------|--2-------|

E|-----|--7--7-7-7---------7--7-7-7-7--------|
B|-----|--7--7-7-7---------7--7-7-7-7--------|
G|-----|--8--8-8-8---------8--8-8-8-8---(x2)-|
D|-----|--9--9-9-9---------9--9-9-9-9--------|
A|--9--|--9--9-9-9----4----9--9-9-9-9--------|
e|--7--|--7--7-7-7----2----7--7-7-7-7--------|

E|----------|----------|
B|----------|----------|
G|----------|----------|
D|--9-------|--4-------| (x2)
A|--9--(x7)-|--4--(x7)-|
e|--7-------|--2-------|

E|-----|--7--7-7-7---------7--7-7-7-7--------|
B|-----|--7--7-7-7---------7--7-7-7-7--------|
G|-----|--8--8-8-8---------8--8-8-8-8---(x2)-|
D|-----|--9--9-9-9---------9--9-9-9-9--------|
A|--9--|--9--9-9-9----4----9--9-9-9-9--------|
e|--7--|--7--7-7-7----2----7--7-7-7-7--------|

E|--7--7-7-7----2-2---2-2--|
B|--7--7-7-7----2-2---2-2--|
G|--8--8-8-8----3-3---3-3--|
D|--9--9-9-9----2-2---2-2--|
A|--9--9-9-9----4-4---4-4--|
e|--7--7-7-7----2-2---2-2--|

E|----------|----------|
B|----------|----------|
G|----------|----------|
D|--9-------|--4-------| (x9)
A|--9--(x7)-|--4--(x7)-|
e|--7-------|--2-------|

E|--4-------|--2-------|------|
B|--4-------|--2-------|------|
G|--4--(x2)-|--3--(x5)-|-(x4)-|
D|--6-------|--4-------|------|
A|--6-------|--4-------|------|
e|--4-------|--2-------|------|


E|--4----2-------|-4-|
B|--4----2-------|-4-|
G|--4----3--(x4)-|-4-|
D|--6----4-------|-6-|
A|--6----4-------|-6-|
e|--4----2-------|-4-|
Suggest correction
Give kudos to tab author, rate the tab!
1 2 3 4 5
comments
print report bad tab
4 comments total. Showing first comments.
+1 reply
Larsen Ste 21 wrote on April 15 2008, 05:42 pm

Good tab, slight correction to the intro (which continues through the song), it's played like this.

E|-----|--7--7-7-7---------2-2-2--2--2--------|
B|-----|--7--7-7-7---------5-5-5--4--2--------|
G|-----|--8--8-8-8---------3-3-3--3--3---(x2)-|
D|-----|--9--9-9-9---------2-2-2--2--2--------|
A|--9--|--9--9-9-9----4----4-4-4--4--4--------|
e|--7--|--7--7-7-7----2----2-2-2--4--4--------|

0 reply
Larsen Ste 21 wrote on April 15 2008, 05:42 pm

Good tab, slight correction to the intro (which continues through the song), it's played like this.

E|-----|--7--7-7-7---------2-2-2--2--2--------|
B|-----|--7--7-7-7---------5-5-5--4--2--------|
G|-----|--8--8-8-8---------3-3-3--3--3---(x2)-|
D|-----|--9--9-9-9---------2-2-2--2--2--------|
A|--9--|--9--9-9-9----4----4-4-4--4--4--------|
e|--7--|--7--7-7-7----2----2-2-2--4--4--------|

0 reply
muzza1249 10 wrote on September 2 2008, 03:21 pm

good tab, but larsen is rite bwt the intro,

guest
You may want to rate the tab now too:
select rating
Please do not post tabs as comments. Select "correction" instead!