Oops, an error
Loading. Please wait.

Doginabag Bass Tab

752 views 1 this week
1 commentread comment
1 2 3 4 5
please rate
add to favorites
launch autoscroll
font size
0
reset
guitar tuner
Autoscroll
slow
fast
+/-
esc
set tempo
stop
Help us to improve Ultimate-Guitar.com Take our survey!
×
Author
-------------------------------------------------------------------------------
			     SONG NAME - Band Name
-------------------------------------------------------------------------------

Tabbed By : luke
e-mail: lukedes@tiscali.co.uk

Tuning:Standrd EADG

Intro/Verse

G|----------------------|
D|----------------------|
A|-----1-3------1-3-----|
E|-0h3------0h3---------|

Chorus

G|-----------------|
D|-----------------|
A|-3-3-3-3-1-1-0-0-|
E|-----------------|

Bridge

G|------------------------|
D|------------------------|
A|-----2~------0~--3~--5~-|
E|-0~------0~-------------|

okay heres the order:

Verse X6
Chorus X1
Verse X6
Chorus X1
Solo (Verse) X5
     (Chorus) X1
     (Verse) X2
Bridge X2
Verse X6
Chorus X1
Break (Verse X1+Chorus X1) X2
Outro (Fade verse out)

| /  slide up
| \  slide down
| h  hammer-on
| p  pull-off
| ~  vibrato
| +  harmonic
| x  Mute note
===============================================================================
Suggest correction
Give kudos to tab author, rate the tab!
1 2 3 4 5
comments
print report bad tab
1 comment total.
0 reply
toddyV 584 wrote on February 20 2014, 01:24 pm

correct me if im wrong but i've got the chorus as:

E|6-6-6-6-5-5-3-3-|

guest
You may want to rate the tab now too:
select rating
Please do not post tabs as comments. Select "correction" instead!