Oops, an error
Loading. Please wait.

Doginabag Tab

version 1
version 1

Intro

Whole song

3,069 views 1 this week
5 commentsread comments
1 2 3 4 5
x 4
add to favorites
×
Save as Personal and add changes to this tab that will be seen only by you. Learn more ›
launch autoscroll
font size
0
reset
how to read this tab
guitar tuner
Autoscroll
slow
fast
+/-
esc
set tempo
stop
Author
e|----------------|
B|----------------|
G|----------0-----|
D|------0-3---0---| x4
A|----2-----------|
E|--3-------------|

then, played over above:

e|-------------------|
B|-------------------|
G|-------------------|
D|-------------------|
A|--------1---3---1--|
E|--3~---------------|
Suggest correction
comments
print report bad tab
5 comments total. Showing first comments.
0 reply
stokesey 10 Mar 02, 2007 11:41 AM

first riff should be:

e|----------------|
B|----------------|
G|----------0-----|
D|------0-3---0---| x4
A|----2-----------|
E|--3-------------|

0 reply
antroolez 920 Mar 02, 2007 12:56 PM

it is...

0 reply
stokesey 10 Mar 03, 2007 11:20 AM

nope, the second open note is on the A not the G.

guest
You may want to rate the tab now too:
select rating
Wanna post a correction for this tab? Suggest correction