Oops, an error
Loading. Please wait.

Everybody Knows You Cried Last Night Bass Tab

version 1
version 1

Whole song

Interactive

2,684 views 12 this week
no commentswrite comment
1 2 3 4 5
accurate
x 2
add to favorites
launch autoscroll
font size
0
reset
guitar tuner
Tab Pro tools
  • play this tab
  • loop segment
  • change instrument
  • show fretboard
  • metronome
Autoscroll
slow
fast
+/-
esc
set tempo
stop
Contributor
Difficulty
novice
----------------------------------------------------------------------------
	   Everybody Knows You Cried Last Night - The Fratellis
----------------------------------------------------------------------------

Tabbed By : Stripes
e-mail: hah

Tuning: Standard

Intro:

G|--------------|----------------|
D|------5-------|------5---5-----|
A|-3333---3-5-3-|-3333---3---5-3-|
E|--------------|----------------| x2

Verse:

G|--------------|----------------|
D|------5-------|------5---5-----|
A|-3333---3-5-3-|-3333---3---5-3-|
E|--------------|----------------| x2

G|------5-------|------5---5-----|
D|-3333---3-5-3-|-3333---3---5-3-|
A|--------------|----------------|
E|--------------|----------------| x1

G|--------------|----------------|
D|------5-------|------5---5-----|
A|-3333---3-5-3-|-3333---3---5-3-|
E|--------------|----------------| x1

G|------4-------|------4---4-----|
D|-2222---2-4-2-|-2222---2---4-2-|
A|--------------|----------------|
E|--------------|----------------| x1

Chorus:

G|-------------|-------------|-------------|-------------|
D|-------------|-------------|-------------|-------------|
A|-------------|-------------|-------------|-------------|
E|-55-44-33-22-|-55-44-33-22-|-55-44-33-22-|-55-44-33-22-|

G|------------|------------|------------|------------|
D|----5-------|----5-------|----5-------|----------3-|
A|-3----3-5-3-|-3----3-5-3-|-3----3-5-3-|-0--3--5----|
E|------------|------------|------------|------------| x2

Post Chorus:

G|--------------|----------------|
D|------5-------|------5---5-----|
A|-3333---3-5-3-|-3333---3---5-3-|
E|--------------|----------------| x2

Verse:

G|--------------|----------------|
D|------5-------|------5---5-----|
A|-3333---3-5-3-|-3333---3---5-3-|
E|--------------|----------------| x2

G|------5-------|------5---5-----|
D|-3333---3-5-3-|-3333---3---5-3-|
A|--------------|----------------|
E|--------------|----------------| x1

G|--------------|----------------|
D|------5-------|------5---5-----|
A|-3333---3-5-3-|-3333---3---5-3-|
E|--------------|----------------| x1

G|------4-------|------4---4-----|
D|-2222---2-4-2-|-2222---2---4-2-|
A|--------------|----------------|
E|--------------|----------------| x1

Chorus:

G|-------------|-------------|-------------|-------------|
D|-------------|-------------|-------------|-------------|
A|-------------|-------------|-------------|-------------|
E|-55-44-33-22-|-55-44-33-22-|-55-44-33-22-|-55-44-33-22-|

G|------------|------------|------------|------------|
D|----5-------|----5-------|----5-------|----------3-|
A|-3----3-5-3-|-3----3-5-3-|-3----3-5-3-|-0--3--5----|
E|------------|------------|------------|------------| x2

Post Chorus:

G|--------------|----------------|
D|------5-------|------5---5-----|
A|-3333---3-5-3-|-3333---3---5-3-|
E|--------------|----------------| x2

Solo (comes in after 4 bars):

G|------------|
D|-9/-5-------|
A|------3-5-3-|
E|------------| x4

G|--------------|----------------|
D|------5-------|------5---5-----|
A|-3333---3-5-3-|-3333---3---5-3-|
E|--------------|----------------| just improvise around the C chord really.

Chorus:

G|-------------|-------------|-------------|-------------|
D|-------------|-------------|-------------|-------------|
A|-------------|-------------|-------------|-------------|
E|-55-44-33-22-|-55-44-33-22-|-55-44-33-22-|-55-44-33-22-|

G|------------|------------|------------|------------|
D|----5-------|----5-------|----5-------|----------3-|
A|-3----3-5-3-|-3----3-5-3-|-3----3-5-3-|-0--3--5----|
E|------------|------------|------------|------------| x2

Outro:

G|--------------|------------|
D|------5-------|----------3-|
A|-3333---3-5-3-|-0--3--5----|
E|--------------|------------| x1

G|--------------|----------------|
D|------5-------|------5---5-----|
A|-3333---3-5-3-|-3333---3---5-3-|
E|--------------|----------------| x3

G|--------------|--------------|
D|------5-------|------5-------|
A|-3333---3-5-3-|-3333---3-5-3-|
E|--------------|--------------| x1

That's it, not completely right but pretty much.

| /  slide up
| \  slide down
| h  hammer-on
| p  pull-off
| ~  vibrato
| +  harmonic
| x  Mute note
===============================================================================
comments
We did not receive enough feedback on this tab! Please rate:
print report bad tab
1 2 3 4 5
I want to post or [tab]
guest
You may want to rate the tab now too:
select rating
Please do not post tabs as comments. Select "correction" instead!