Oops, an error
Loading. Please wait.

Flathead Tab

version 1
version 1

Whole song

Interactive

30,374 views 21 this week
1 commentread comment
1 2 3 4 5
excellent!
x 4
add to favorites
launch autoscroll
font size
0
reset
how to read this tab
guitar tuner
Autoscroll
slow
fast
+/-
esc
set tempo
stop
Help us to improve Ultimate-Guitar.com Take our survey!
×
Author
this is a great song very simple and catchy

----------------------------------------------|
----------------------------------------------|
----------------------------------------------| x 6
----------------------------------------------|
----------------------------------------------|
---8-8-5-5-8-8-5-55---------------------------|

--1-1---------------|
--1-1--1-1-0-0-1-1--|
--2-2--0-0-1-1-2-2--| x 2
--3-3--2-2-2-2-2-2--|
--3-3--3-3-2-2-0-0--|
--1-1---------------|


----------------------------------------------|
----------------------------------------------|
----------------------------------------------| x 2
----------------------------------------------|
----------------------------------------------|
---8-8-5-5-8-8-5-55---------------------------|

--1-1---------------|
--1-1--1-1-0-0-1-1--|
--2-2--0-0-1-1-2-2--| x 2
--3-3--2-2-2-2-2-2--|
--3-3--3-3-2-2-0-0--|
--1-1---------------|

----------------------------------------------|
----------------------------------------------|
----------------------------------------------| x 2
----------------------------------------------|
----------------------------------------------|
---8-8-5-5-8-8-5-55---------------------------|


--1-1---------------|
--1-1--1-1-0-0-1-1--|
--2-2--0-0-1-1-2-2--| x 2
--3-3--2-2-2-2-2-2--|
--3-3--3-3-2-2-0-0--|
--1-1---------------|


---1--1-1---3--3-3---1--1-1---3-3-3-3--------|
---1--1-1---3--3-3---1--1-1---3-3-3-3--------|
---2--2-2---4--4-4---2--2-2---4-4-4-4--------| x 2
---3--3-3---5--5-5---3--3-3---5-5-5-5--------|
---3--3-3---5--5-5---3--3-3---5-5-5-5--------|
---1--1-1---3--3-3---1--1-1---3-3-3-3--------|

|-----12----12--12-----13--------15---|
|---13----13---------13---------------|
|-12----12----12---14----14-14h16--16-|
|-------------------------------------|
|-------------------------------------|
|-------------------------------------|

ooooohhh aaaaahhhh bit

----------------------------------------------|
----------------------------------------------|
----------------------------------------------| x 6
----------------------------------------------|
----------------------------------------------|
---8-8-5-5-8-8-5-55---------------------------|

--1-1---------------|
--1-1--1-1-0-0-1-1--|
--2-2--0-0-1-1-2-2--| x 2
--3-3--2-2-2-2-2-2--|
--3-3--3-3-2-2-0-0--|
--1-1---------------|

----------------------------------------------|
----------------------------------------------|
----------------------------------------------| x 2
----------------------------------------------|
----------------------------------------------|
---8-8-5-5-8-8-5-55---------------------------|


--1-1---------------|
--1-1--1-1-0-0-1-1--|
--2-2--0-0-1-1-2-2--| x 2
--3-3--2-2-2-2-2-2--|
--3-3--3-3-2-2-0-0--|
--1-1---------------|




---1--1-1---3--3-3---1--1-1---3-3-3-3--------|
---1--1-1---3--3-3---1--1-1---3-3-3-3--------|
---2--2-2---4--4-4---2--2-2---4-4-4-4--------| x 2
---3--3-3---5--5-5---3--3-3---5-5-5-5--------|
---3--3-3---5--5-5---3--3-3---5-5-5-5--------|
---1--1-1---3--3-3---1--1-1---3-3-3-3--------|

|-----12----12----12---13--------15---|
|---13----13---------13---------------|
|-12----12----12---14----14-14h16--16-| x 4
|-------------------------------------|
|-------------------------------------|
|-------------------------------------|

ooooohhh aaaaahhhh bit


-------------------------------------|
-------------------------------------|
--5--55---2-22---4-44----------------|
--5--55---3-33---5-55----------------| x 4
--3--33---3-33---5-55----------------|
--3--33---1-11---3-33----------------|


--1-1---------------|
--1-1--1-1-0-0-1-1--|
--2-2--0-0-1-1-2-2--| x 4
--3-3--2-2-2-2-2-2--|
--3-3--3-3-2-2-0-0--|
--1-1---------------|


---1--1-1---3--3-3---1--1-1---3-3-3-3--------|
---1--1-1---3--3-3---1--1-1---3-3-3-3--------|
---2--2-2---4--4-4---2--2-2---4-4-4-4--------| x 1
---3--3-3---5--5-5---3--3-3---5-5-5-5--------|
---3--3-3---5--5-5---3--3-3---5-5-5-5--------|
---1--1-1---3--3-3---1--1-1---3-3-3-3--------|

|-----12----12----12---13--------15---|
|---13----13---------13---------------|
|-12----12----12---14----14-14h16--16-|
|-------------------------------------| x 6
|-------------------------------------|
|-------------------------------------|

15-12----12-15-12---------------------------------------------------------|
------15----------15-13-15^17-13----------------13----------15*13---------|
---------------------------------14-------12*14----14*12*14-------14*12-14|
------------------------------------12*14---------------------------------|
--------------------------------------------------------------------------|
--------------------------------------------------------------------------|


|-14^15-12-14----------------------------------------------------------|
|------------15*13-15^17-13----13-13*15-13-----------------------------|
|---------------------------14-------------14*12-14*12-----------------|
|------------------------------------------------------14*12-----------|
|------------------------------------------------------------15*12-12--|
|----------------------------------------------------------------------|

|-22-20----------20----------22-20-----------------|
|--22-22-20----20-22----------22-22-20-20----------|
|-----------------------------------------21-19\17-|
|--------------------------------------------------|
|--------------------------------------------------|
|--------------------------------------------------|

|--22-20----------20----------|
|--------22-22-20----20-22----|
|-----------------------------|
|-----------------------------|
|-----------------------------|
|-----------------------------|

|-22-20-------------------|
|-------22-20-------------|
|-------------21-19-17----|
|----------------------19-|
|-------------------------|
|-------------------------|

thas a legendary song nd if u have and commens or corrections email me on wel0001@parkwood.vic.edu.au



Suggest correction
comments
print report bad tab
1 comment total.
0 reply
yoh47 57 wrote on September 24 2007, 04:01 pm

wicked tab definitly better than the others :P

guest
You may want to rate the tab now too:
select rating
Please do not post tabs as comments. Select "correction" instead!