Oops, an error
Loading. Please wait.

Flathead Bass Tab

version 2
version 2

Whole song

Interactive

11,590 views 18 this week
no commentswrite comment
1 2 3 4 5
accurate
x 5
add to favorites
launch autoscroll
font size
0
reset
guitar tuner
Tab Pro tools
  • play this tab
  • loop segment
  • change instrument
  • show fretboard
  • metronome
×
Best way to learn
"Flathead"
Autoscroll
slow
fast
+/-
esc
set tempo
stop
Contributor
The Fratellis 
Flathead

The other tab was mostly accurate, but he left out the Part 1 riff

Verse Part 1
|--------------------|--------------------|  
|--------------------|--------------------|
|-3-33------33-------|-3-33------33-------|
|------5-55----5-555-|------5-55----5-555-|

Verse Part 2
G------------------|
D------------------|
A-8-8--------------|
E-----8-8-0-0-5-55-|

Pre-Chorus
G----------------------------------------|
D----------------------------------------|
A----------------------------------------|
E-1-1--1--1--3-3-3--3-1-1--1--1--3-3-3-3-|

Chorus
G---------------------------------------------|
D---------2--0------------------------------0-|
A--3--3-3-------3--2--0---------------2--3----|
E-----------------------1--1-1--3--5----------|

ORDER
Part 1 x3
Part 2 x2
Part 1 x1
Part 2 x2
Part 1 x1
Part 2 x2
Pre-Chorus x1
Chorus x4
Part 1 x3
Part 2 x2
Part 1 x1
Part 2 x2
Pre-Chorus x1
Chorus x4
-Rest on the bridge-
Part 2 x4
Pre-Chorus x1
-Rest a bit-
Chorus x4
Play Part 1 until the end of the song
comments
print report bad tab
I want to post or [tab]
guest
You may want to rate the tab now too:
select rating
Please do not post tabs as comments. Select "correction" instead!