Oops, an error
Loading. Please wait.

Flathead Tab

version 2
version 2

Whole song

Interactive

60,830 views 45 this week
30 commentsread comments
1 2 3 4 5
x 36
add to favorites
launch autoscroll
font size
0
reset
how to read this tab
guitar tuner
backing track
0:00
0:00
×
Best way to learn
"Flathead"
Autoscroll
slow
fast
+/-
esc
set tempo
stop
Author
Difficulty
  follow
novice
Tuning Standard

[Intro]
e|--------------------|--------------------|
B|--------------------|--------------------| (x2)
G|--------------------|--------------------|  
D|--------------------|--------------------|
A|-3-33-0-00-33-0-000-|-3-33-0-00-33-0-000-|
E|--------------------|--------------------|

[Verse 1]
           (B       A     S    S          R     I    F    F)
Just because she feeds me well and she made me talk dirty in a pink hotel 
  F           C         E       Am   F              C        E        A
doesn't mean she's got eyes for me, she might just want my bones you see 
                (B       A     S    S          R     I    F    F)
hey flathead dont you get mean she's the second best killer that i have ever seen
       F         C        E         Am F       C             E      Am
they dont come much more sick than you i could go on if you want me to 
             (B       A     S    S          R     I    F    F)
it's just so wrong so very nice i told you once and you killed me twice 
   F            C          E           Am     F         C           E     Am
i saw you one time at the back of the club chewing on glass and a ticket stub 

[Bridge]
    F                                G          F                   G                
i heard they kicked the boy till he bled then stood and said oh my god till she said 

[Chorus]
(Guitar 1)
e|-----12----12-------13-----15---|
B|---13----13--13---13------------|
G|-12----12-------14----14/16--16-|
D|--------------------------------|
A|--------------------------------|
E|--------------------------------|

(Guitar 2)
C major bar chord        F          G            
bara bap bara ra ra bara bap bara ra ra ra... etc

[Verse 2]          
               (B       A     S    S          R     I    F    F)
everybody knows you're the one to call when the girls get ugly at the back of the wall 
    F       C              E      Am       F        C         E           Am
josephine says you got a bleedin nose so taking it with her wherever she goes
           (B       A     S    S          R     I    F    F)
hey flathead don't check me in well hers is a tonic and mine is a gin 
       F         C         E         Am      F          C          E     Am
they dont come much more slick than you i'd drive your car if you ask me to

[Bridge 2]
          F                      G           F                       G
said the boy's not right in the head so he stood and got a kickin instead till she said

[Chorus]
(Guitar 1)
e|-----12----12-------13-----15---|
B|---13----13--13---13------------|
G|-12----12-------14----14/16--16-|
D|--------------------------------|
A|--------------------------------|
E|--------------------------------|

(Guitar 2)
C major bar chord        F          G            
bara bap bara ra ra bara bap bara ra ra ra... etc

[Random Fill]

C major bar chord              F               G             (x4)

[Verse 3]
 F  C  E  Am      F  C  E  Am       F  C  E  Am       F  C  E  Am
aaaaaaaaaaaaah  aaaaaaaaaaaaaah   aaaaaaaaaaaaaah   aaaaaaaaaaaaaah 

[Bridge 2]
          F                      G           F                       G
said the boy's not right in the head so he stood and got a kickin instead till she said

[Chorus]
(Guitar 1)
e|-----12----12-------13-----15---|
B|---13----13--13---13------------|
G|-12----12-------14----14/16--16-|
D|--------------------------------|
A|--------------------------------|
E|--------------------------------|

(Guitar 2)
C major bar chord        F          G            
bara bap bara ra ra bara bap bara ra ra ra... etc

[Outro]
(Guitar 2)
e|--------------------|--------------------|
B|--------------------|--------------------|
G|--------------------|--------------------|  
D|--------------------|--------------------|
A|-3-33-0-00-33-0-000-|-3-33-0-00-33-0-000-|
E|--------------------|--------------------|

(Guitar 1)
e|-15-12----12-15-12----------------------------------------------------------|
B|-------15----------15-13-15^17-13----------------13----------15*13----------|
G|----------------------------------14-------12*14----14*12*14-------14*12-14-|
D|-------------------------------------12*14----------------------------------|
A|----------------------------------------------------------------------------|
E|----------------------------------------------------------------------------|

e|-14^15-12-14----------------------------------------------------------|
B|------------15*13-15^17-13----13-13*15-13-----------------------------|
G|---------------------------14-------------14*12-14*12-----------------|
D|------------------------------------------------------14*12-----------|
A|------------------------------------------------------------15*12-12--|
E|----------------------------------------------------------------------|

e|-22-20----------20----------22-20-----------------------22-20----------20-------
B|-------22-22-20----20-22----------22-22-20-20-----------------22-22-20----20-22-
G|----------------------------------------------21-19\17--------------------------
D|--------------------------------------------------------------------------------
A|--------------------------------------------------------------------------------
E|--------------------------------------------------------------------------------

e|-22-20-------------------|
B|-------22-20-------------|
G|-------------21-19-17----|
D|----------------------19-|
A|-------------------------|
E|-------------------------|


************************************

| /  Slide up
| *  Natural harmonic
| \  Slide down 

************************************
Suggest correction
comments
print report bad tab
30 comments total. Showing first comments.
0 reply
littleguitarguy 10 Dec 02, 2006 03:26 AM

wots the s all about

0 reply
Dayleh 166 Dec 02, 2006 07:19 AM

What S?

0 reply
littleguitarguy 10 Dec 13, 2006 10:12 AM

on the chord bit, theres an S looking thing above some the words

guest
You may want to rate the tab now too:
select rating
Wanna post a correction for this tab? Suggest correction