Oops, an error
Loading. Please wait.

Flathead Bass Tab

version 3
version 3

Whole song

Interactive

2,203 views 12 this week
no commentswrite comment
1 2 3 4 5
please rate
add to favorites
launch autoscroll
font size
0
reset
guitar tuner
Autoscroll
slow
fast
+/-
esc
set tempo
stop
Help us to improve Ultimate-Guitar.com Take our survey!
×
Contributor
Difficulty
novice
First tab ive written hope its ok

No Bass in Intro

Order:
Verse part 1
Verse part 2
Verse part 1
Verse part 2 
Verse part 1
Pre-chorus
Chorus
Verse part 2 (x6)
Verse part 1
Verse part 2
Verse part 1
Pre-Chorus
Chorus
Bridge
Verse part 1 (x3)
Pre-chorus
Chorus (x6)
Verse part 2 (x14)  and Fade Out

0:14
Verse part 1     (It doesnt mean.....)
G[----------------------]
D[-3--3--2--2--2-0------]
A[-----------------3----]   (x2)
E[----------------------]

Verse part 2
G[---------------------------]
D[---------------------------]
A[-3--3--0--0--3--3-0-0-0----]    (x2)
E[---------------------------]

0:37
Pre-chorus     (I heard you kicked.....)  
G[----------------------------]
D[----------------------------]
A[----------------------------]
E[--1--1--3--3--1--1--3--3----]

0:42
Chorus     (Ba-ba-da-ba-da.....)
G[------------------------------]
D[------------------------------]
A[--3--3-3--2-0-----------------]    (x4)
E[---------------1--1-3--3-3----]

2:00
Bridge
G[----------]
D[----------]
A[--3333----]
E[----------]
comments
We did not receive enough feedback on this tab! Please rate:
print report bad tab
1 2 3 4 5
I want to post or [tab]
guest
You may want to rate the tab now too:
select rating
Please do not post tabs as comments. Select "correction" instead!