Oops, an error
Loading. Please wait.

For The Girl Tab

version 1
version 1

Intro

Whole song

Interactive

2,651 views 1 this week
no commentswrite comment
1 2 3 4 5
please rate
add to favorites
launch autoscroll
font size
0
reset
how to read this tab
guitar tuner
Autoscroll
slow
fast
+/-
esc
set tempo
stop
Help us to improve Ultimate-Guitar.com Take our survey!
×
Author
a guess al just get on with it lol

the fratellis
for the girl

e------------------------------------------------------|
b------------------------------------------------------|
g-5-7-5-7-99-7-5-7-4444-2-22-0-0-5-7-5-7-99-7-5-7------|
d------------------------------------------------------|
a------------------------------------------------5-7-9-|
e------------------------------------------------3-5-7-|

e----------------------------------------------------------------|
b----------------------------------------------------------------|
g-5-7-5-7-99-7-5-7-4444-2-22-0-0-5-7-5-7-99-7-5-7-4444-2-22-0-0--|
d----------------------------------------------------------------|
a----------------------------------------------------------------|
e----------------------------------------------------------------|
Suggest correction
Give kudos to tab author, rate the tab!
1 2 3 4 5
comments
print report bad tab
guest
You may want to rate the tab now too:
select rating
Please do not post tabs as comments. Select "correction" instead!