Oops, an error
Loading. Please wait.

Got Ma Nuts From A Hippy Bass Tab

version 1
version 1

Whole song

Interactive

2,777 views 3 this week
no commentswrite comment
1 2 3 4 5
accurate
x 6
add to favorites
launch autoscroll
font size
0
reset
guitar tuner
Autoscroll
slow
fast
+/-
esc
set tempo
stop
Help us to improve Ultimate-Guitar.com Take our survey!
×
-------------------------------------------------------------------------------
			     Got Ma Nuts From A Hippy - The Fratellis
-------------------------------------------------------------------------------

Tabbed By : Spy_the_Bassist
e-mail: electric_birdseed@hotmail.com

Verse:

G|--------------------------------|
D|--------------------------------| x2
A|-----7--5-----------7--5--------|
E|--0-------7-5-7--0-------7-5-7--|

G|--------------------------------------------------------------|
D|--------------------------------------------------------------|
A|-----7--5--------5--5--5-5-7-5-----7--5-----------7--5--------|
E|--0-------7-5-7-----------------0-------7-5-7--0-------7-5-7--|

G|--------------------------------------------------------------|
D|-----------------------------5--------------------------------|
A|-----7--5--------5--5--5-5-7-------7--5-----------7--5--------|
E|--0-------7-5-7-----------------0-------7-5-7--0-------7-5-7--|

G|---------------------------------------------------------------------------|
D|---------------------------------------------------------------------------|
A|--3---3-------------5---5-------------3---3-------------5---3---2---0---5--|
E|-----------3---3-------------7---7-------------3---3-----------------------|

G|-----------------------------------------------------------------|
D|-----------------------------------------------------------------|
A|-----7--5------------7---------------7--5----- ------7--5---5----|
E|--0-------7-5-7---0-------7-5-7---0-------7-5-7---0--------------|

Chorus:

G|---------------------------------------------------------------------|
D|---------------------------------------------------------------------|
A|---------------------------5---5------7---7---7---7---7-7-5---5------|
E|---3---3---3---3---3---3-3-------------------------------------------|

G|---------------------------------------------------------------------|
D|---------------------------------------------------------------------|
A|---------------------------------------------------------------------|
E|---3---3---3---3---3---3-3-5---5------7---7---7---7---7---5---3---2--|

G|---------------------------------|
D|---------------------------------|
A|-------------------5---5---------|
E|---0---0---3---3----------7---7--|

Verse 2:

G|--------------------------------|
D|--------------------------------| x2
A|-----7--5-----------7--5--------|
E|--0-------7-5-7--0-------7-5-7--|

G|--------------------------------------------------------------|
D|--------------------------------------------------------------|
A|-----7--5--------5--5--5-5-7-5-----7--5-----------7--5--------|
E|--0-------7-5-7-----------------0-------7-5-7--0-------7-5-7--|

G|--------------------------------------------------------------|
D|-----------------------------5--------------------------------|
A|-----7--5--------5--5--5-5-7-------7--5-----------7--5--------|
E|--0-------7-5-7-----------------0-------7-5-7--0-------7-5-7--|

G|---------------------------------------------------------------------------|
D|---------------------------------------------------------------------------|
A|--3---3-------------5---5-------------3---3-------------5---3---2---0---5--|
E|-----------3---3-------------7---7-------------3---3-----------------------|

G|-----------------------------------------------------------------|
D|-----------------------------------------------------------------|
A|-----7--5------------7---------------7--5----- ------7--5---5----|
E|--0-------7-5-7---0-------7-5-7---0-------7-5-7---0--------------|

Chorus 1:

G|---------------------------------------------------------------------|
D|---------------------------------------------------------------------|
A|---------------------------5---5------7---7---7---7---7-7-5---5------|
E|---3---3---3---3---3---3-3-------------------------------------------|

G|---------------------------------------------------------------------|
D|---------------------------------------------------------------------|
A|---------------------------------------------------------------------|
E|---3---3---3---3---3---3-3-5---5------7---7---7---7---7---5---3---2--|

G|---------------------------------|
D|---------------------------------|
A|-------------------5---5---------|
E|---0---0---3---3----------7---7--|

G|--------------------------------|
D|--------------------------------|
A|-----7--5-----------7--5--------|
E|--0-------7-5-7--0-------7-5-7--|

Bridge

G|------------------------------------------------------------------------|
D|------------------------------------------------------------------------| x3
A|--------------------------2---3---2---5~---2---3---0---2----------------|
E|-7\-------0---2---3---5------------------------------------3---5---2~---|

G|---------------------------------------------------------------------------|
D|---------------------------------------------------------------------------|
A|--3---3-------------5---5-------------3---3-------------5---3---2---0---5--|
E|-----------3---3-------------7---7-------------3---3-----------------------|

G|---------------------------------------------------------------------------|
D|------------------------------------------------5--------------------------|
A|--7-----5----------5h7p5--------------------5------7-----5h7p5-------------|
E|--------------0---------7--5---3------0-----------------------7--5---3-----|

G|-------------------------------------------------------------------------------|
D|-------------------------------------------------------------------------------|
A|--3-----------------5-----------------3-----3h5---------5----------------5-----|
E|-----------3-----------------7-----------------3--------------------0h3h5------|

Final Chorus:

G|---------------------------------------------------------------------|
D|---------------------------------------------------------------------| x3
A|---------------------------5---5------7---7---7---7---7-7-5---5------|
E|---3---3---3---3---3---3-3-------------------------------------------|

G|---------------------------------------------------------------------|
D|---------------------------------------------------------------------|
A|---------------------------------------------------------------------|
E|---3---3---3---3---3---3-3-5---5------7---7---7---7---7---5---3---2--|

G|-----------------------------------------------------------------|
D|-----------------------------------------------------------------| x3
A|-------------------5---5----------7---7---7---7---7---7---7---7--|
E|---0---0---3---3----------7---7----------------------------------|

G|-------------------------------------------------------|
D|-------------------------------------------------------|
A|-------------------5---5----------7(hold until end)----|
E|---0---0---3---3----------7---7------------------------|


| /  slide up
| \  slide down
| h  hammer-on
| p  pull-off
| ~  vibrato
| +  harmonic
| x  Mute note
===============================================================================
Suggest correction
comments
print report bad tab
guest
You may want to rate the tab now too:
select rating
Wanna post a correction for this tab? Suggest correction