Oops, an error
Loading. Please wait.

Got Ma Nuts From A Hippy Tab

version 1
version 1

Solo

Whole song

Interactive

3,543 views 6 this week
1 commentread comment
1 2 3 4 5
1 last vote to show rating
add to favorites
launch autoscroll
font size
0
reset
how to read this tab
guitar tuner
Autoscroll
slow
fast
+/-
esc
set tempo
stop
Help us to improve Ultimate-Guitar.com Take our survey!
×
Author
       - The Fratellis
       - Got Ma Nuts From A Hippie (solo)

tabbed by killiefc

standard tuning

brilliant song! the other tab for the main of this song is spot on, no-ones tabbed this 
tho so i thought i'd give it a go.

e|-----10/19-17-15-17-15----15------------------------|
B|-----------------------17---------------------------|
G|----------------------------------------------------|
D|----------------------------------------------------|
A|---------------------------------12\10-12-12--------|
E|----------------------------------------------------|


e|-----12-14-15-17-19-20-19-x-x-x-x-x-*********-------------------|  *my guitar only goes
B|----------------------------------------------------   to 21----|st fret, so
G|----------------------------------------------------------------|   place finger just
D|----------------------------------------------------   after 21-|st and play
A|----------------------------------------------------------------|   that.
E|----------------------------------------------------------------|

its a start, feel free to correct, Cheers.
Suggest correction
Give kudos to tab author, rate the tab!
1 2 3 4 5
comments
print report bad tab
1 comment total.
0 reply
Cobain_Is_King 61 Dec 16, 2008 01:10 PM

Nice one, can't really go wrong. Could maybe indicate tremolo use forthe A string notes, sounds a bit better but overall, nice tab!

guest
You may want to rate the tab now too:
select rating
Wanna post a correction for this tab? Suggest correction