Oops, an error
Loading. Please wait.

Got Ma Nuts From A Hippy Tab

version 1
version 1

Whole song

Interactive

5,186 views 6 this week
no commentswrite comment
1 2 3 4 5
please rate
add to favorites
launch autoscroll
font size
0
reset
how to read this tab
guitar tuner
Autoscroll
slow
fast
+/-
esc
set tempo
stop
Help us to improve Ultimate-Guitar.com Take our survey!
×
Author
buba1986 306
-------------------------------------------------------------------------------
                            The Fratellis - Got Ma Nuts From A Hippy
-------------------------------------------------------------------------------
Tabbed by: buba1986
Email: buba1986@hotmail.co.uk

I didnt put the amount of times you hit the chords in the verse and chorus but are easy to figure out

Tuning: Standard

Guitar 1 Intro

e|------7--7--7---7------7--7------------------------------------------------|
B|------8--8--8---8------8--8------------------------------------------------|
G|------9--9--9---9------9--9------------------------------------------------|
D|------9--9--9---9------9--9------------------------------------------------|
A|------7--7--7---7------7--7------------------------------------------------|
E|----7----------------7-----------------------------------------------------|

Guitar 2 *Palm mute* (Play after guitar 1 plays intro once)

e|---------------------------------------------------------------------------|
B|---------------------------------------------------------------------------|
G|---------------------------------------------------------------------------|
D|---------------------------------------------------------------------------|
A|-----7--5--0----------7--5--0----------7--5--0----------7--5--0------------|
E|--0----------7--7---0---------7--7---0---------7--7---0---------7--7-------|

Guitar 1 verse (Ska like chords)

e|-----7--7--2--2--7--7--7--7------------------------------------------------|
B|-----8--8--3--3--8--8--8--8------------------------------------------------|
G|-----9--9--2--2--9--9--9--9------------------------------------------------|
D|-----9--9--0--0--9--9--9--9------------------------------------------------|
A|-----7--7--------7--7--7--7------------------------------------------------|
E|---------------------------------------------------------------------------|

Guitar 2 Verse *palm mute*

e|---------------------------------------------------------------------------|
B|---------------------------------------------------------------------------|
G|---------------------------------------------------------------------------|
D|---------------------------------------------------------------------------|
A|------7--5--0-----------5--5--7--5-----7--5--0---------7--5--0-------------|
E|----0----------7--7---0--------------0---------7--7---0--------7--7--------|

Guitar 1 Verse

e|------3---2-----------3---------------------------------------------------------|
B|--1---3---3---4---1---3---4-----------------------------------------------------|
G|--0---0---2---4---0---0---4-----------------------------------------------------|
D|--2---0---0---4---2---0---4-----------------------------------------------------|
A|--3---2-------2---3---2---2-----------------------------------------------------|
E|------3---------------3---------------------------------------------------------|

Guitar 1 Pre Chorus

e|------7--7--7---7------7--7--7-------------------------------------------------|
B|------8--8--8---8------8--8--8-------------------------------------------------|
G|------9--9--9---9------9--9--9---5---------------------------------------------|
D|------9--9--9---9------9--9--9---5---------------------------------------------|
A|------7--7--7---7------7--7--7---3---------------------------------------------|
E|----7----------------7---------------------------------------------------------|

Guitar 2 Pre Chorus

e|---------------------------------------------------------------------------|
B|---------------------------------------------------------------------------|
G|---------------------------------------------------------------------------|
D|---------------------------------------------------------------------------|
A|-----7--5--0----------7--5--0----------7--5--0----------7--5--0------------|
E|--0----------7--7---0---------7--7---0---------7--7---0---------7--7-------|

Chorus

e|-------2--7----2-----------------------------------------------------------|
B|-------3--8----3----------4------------------------------------------------|
G|-------2--9----2-----2----4------------------------------------------------|
D|---5------9------5---2----4------------------------------------------------|
A|---5------7------5---0----2------------------------------------------------|
E|---3-------------3---------------------------------------------------------|

Post chorus

e|---------------------------------------------------------------------------|
B|---------------4-----------------------------------------------------------|
G|-----------7---4-----------------------------------------------------------|
D|---2---5---7---4-----------------------------------------------------------|
A|---2---5---5---2-----------------------------------------------------------|
E|---0---3-------------------------------------------------------------------|

Lead up to solo

e|---------------------------------------------------------------------------|
B|---------------------------------------------------------------------------|
G|---------------------------------------------------------------------------|
D|----------------0----------------------------------------------------------|
A|--------0-2-3-2---2-3-0-2---0----------------------------------------------|
E|--0-2-3-------------------3---2~-------------------------------------------|

solo

e|---/--19--17--15--17--15------15--\----------------------------------------|
B|--------------------------17--------------------14-14-14-14-14-14----------|
G|------------------------------------2-Bend-up---14-14-14-14-14-14----------|
D|---------------------------------------------------------------------------|
A|---------------------------------------------------------------------------|
E|---------------------------------------------------------------------------|

e|--12-/-14-/-15-/-17-/-19-/-20-bend-up---*fast-alternate-picking*-----------|
B|---------------------------------------------------------------------------|
G|---------------------------------------------------------------------------|
D|---------------------------------------------------------------------------|
A|---------------------------------------------------------------------------|
E|---------------------------------------------------------------------------|

Post Solo

e|---------------------------------------------------------------------------|
B|-------------3-------------------------------------------------------------|
G|--9----------x-------------------------------------------------------------|
D|--9---4------4--4---2------------------------------------------------------|
A|--7---5---2--2--5---2------------------------------------------------------|
E|------3---0-----3---0------------------------------------------------------|

e|------7--7----7---7--7----7---7--7----7------------------------------------|
B|------8--8----8---8--8----8---8--8----8------------------------------------|
G|------9--9----9---9--9----9---9--9----9----5-------------------------------|
D|------9--9----9---9--9----9---9--9----9----5-------------------------------|
A|------7--7----7---7--7----7---7--7----7----3-------------------------------|
E|---------------------------------------------------------------------------|

| /  slide up
| \  slide down
| h  hammer-on
| p  pull-off
| ~  vibrato
| +  harmonic
| x  Mute note
===============================================================================
Suggest correction new What's this?
You can suggest a correction to this tab. Community and Mods will review your correction and vote to approve or reject it.
comments
We did not receive enough feedback on this tab! Please rate:
print report bad tab
1 2 3 4 5
guest
You may want to rate the tab now too:
select rating
Please do not post tabs as comments. Select "correction" instead!