Oops, an error
Loading. Please wait.

Henrietta Bass Tab

version 1
version 1

Whole song

Interactive

18,557 views 21 this week
3 commentsread comments
1 2 3 4 5
x 8
add to favorites
launch autoscroll
font size
0
reset
guitar tuner
Autoscroll
slow
fast
+/-
esc
set tempo
stop
Help us to improve Ultimate-Guitar.com Take our survey!
×
Author
Difficulty
intermediate
----------------------------------------------------------------------------
	          The Fratellis - Henrietta
----------------------------------------------------------------------------

Tabbed By : Chris (The-Kicks)
e-mail: cmc_41@msn.com

Tuning: Standard.

Song Order:

Verse   X3
Bridge
Chorus  X2
Verse   X4
Bridge
Chorus  X2
Alt Verse
Bridge
Alt Chorus
Chorus  X2
Alt Chorus 2
Ending


The Bass Guitar comes in after the guitar and drum intro, right after the word "Hello" is spoken.


Verse - "Henrietta we got no flowers for you..."

G|-------------------------------------------------------|
D|---------------------------------------2-2-2-2-2-2-2-2-| X 3
A|-2--2--2--2--------------------------------------------|
E|-----------3-4--4--4--4-1-2--2--2--2-0-----------------|


Bridge - " Give us a kiss an maybe we can go out..." 

G|----------------------------------------------|
D|----------------------------------------------|
A|---------2-1-0------------2-2-2---------------|
E|-0----2--------4--0----2--------4--4-4-4-4----|

G|----------------------------------------------|
D|---------------------5-----5-----4-----4------|
A|---------2-1-0--------------------------------|
E|-0----2--------4--3-----3-----2-----2---------|


Chorus - "Clean out the bank and bump off your daddy" 

G|-----------------------------------------------------------------|
D|---------------------------------2-2-2-2-2-2-2-2-----------------| X 2
A|-2-2-2-2-2-2-2-2-4-4-4-4-4-4-4-4---------------------------------|
E|-------------------------------------------------3-3-3-3-2-2-2-2-|

Alt Verse  - "Wah Wah Wah Wow..."

G|---------------------------------------------|
D|--------------------------4-----4------------|
A|-2--2--2--2-------11\------------------------|
E|-------------4---------2-----2-----0----12\--|

G|-----4-----4--------------------------------------------|
D|-------------------------------------4-----4------------|
A|1-2----2-------------h---14\----------------------------|
E|--------------4----14-16--------1-2-----2-----0----12\--|

Alt Chorus - "Clean out the band and bump off your daddy

G|------------------------------------------------------|
D|---------------------2-2-2-2-2-2-2-2------------------|
A|-2--------4-4-----------------------------------------|
E|--------------------------------------3-3-3-3-2-2-2-2-|

Alt Chorus 2

G|------------------------------------------------------------|
D|---------------------------2-2-2-2-2-2-2-2------------------|
A|-2--------4-4-4-4-4-4-4-4-----------------------------------|
E|--------------------------------------------3-3-3-3-2-2-2-2-|

Ending - "Oh come on..."

G|------------------------------------------------|
D|------------------------------------------------|
A|-2--2--2-1--------------1-2--2--2---------------|
E|-----------5--4--4--4-5-----------5--4--4--4-5--|

G|----------------------------------------------------------|
D|-----------------------------------------2-2-2-2-2-2-2-2-2|
A|1-2--2--2-1-----------------------------------------------|
E|-----------5--4--4--4-5--2-2-2-2-2-2-2-2------------------|

Song Order:

Verse   X3
Bridge
Chorus  X2
Verse   X4
Bridge
Chorus  X2
Alt Verse
Bridge
Alt Chorus
Chorus  X2
Alt Chorus 2
Ending

| /  slide up
| \  slide down
| h  hammer-on
| p  pull-off
| ~  vibrato
| +  harmonic
| x  Mute note
Suggest correction
comments
print report bad tab
3 comments total.
0 reply
bassist792 81 Aug 31, 2006 11:17 AM

awesome song great tab, thanks : )

0 reply
jordanbeth 51 Jan 24, 2009 01:38 PM

great tab =D

0 reply
Chaosbass67 31 Feb 10, 2011 11:49 AM

On the intro it sounds to me like he's alternating playing the octaves like he does at the end of the bridge, and I think he plays the F# at the end of the bridge with double the notes, but those things are fairly minor really. Great tab, lovin it.

guest
You may want to rate the tab now too:
select rating
Wanna post a correction for this tab? Suggest correction