Oops, an error
Loading. Please wait.

Henrietta Tab

version 1
version 1

Whole song

Interactive

22,972 views 3 this week
9 commentsread comments
1 2 3 4 5
x 12
add to favorites
launch autoscroll
font size
0
reset
how to read this tab
guitar tuner
Autoscroll
slow
fast
+/-
esc
set tempo
stop
Help us to improve Ultimate-Guitar.com Take our survey!
×
Author
-------------------------------------------------------------------------------
                             Henrietta - Fratellis
-------------------------------------------------------------------------------
Tabbed by: Aron S
Email: goodsum@hotmail.com

Tuning: standard


Intro:

e|-------------------------------------------|
B|-------------------------------------------|
G|--4-4-4-444-4-4-4-444-4-4-4-444-4-4-4-444--|
D|--4-4-4-444-4-4-4-444-4-4-4-444-4-4-4-444--|
A|--2-2-2-200-2-2-2-200-2-2-2-200-2-2-2-200--|
E|---------00--------00--------00--------00--|

e|---------------------------------------|
B|---------------------------------------|
G|--4-4-4-4------------------------------|
D|--4-4-4-4--6-6-6-6--4-4-4-4--66666666--|
A|--2-2-2-2--6-6-6-6--4-4-4-4--77777777--|
E|-----------4-4-4-4--2-2-2-2--55555555--|


Verse:

e|---------------------------------------|
B|---------------------------------------|
G|--4-4-4-4------------------------------|
D|--4-4-4-4--6-6-6-6--4-4-4-4--66666666--|
A|--2-2-2-2--6-6-6-6--4-4-4-4--77777777--|
E|-----------4-4-4-4--2-2-2-2--55555555--|


Pre-Chorus:

e|------------------------------------------------|--------------------------------------|
B|------------------------------------------------|--------------------------------------|
G|------------------------------------------------|--------------------------------------|
D|--6-x--4-x--9\8\7\6--6-x--4-x--9-9-9-9-6-6-6-6--|--6-x--4-x--9\8\7\6--6-6-6-6-4444444--|
A|--7-x--4-x--9\8\7\6--5-x--3-x--9-9-9-9-6-6-6-6--|--7-x--4-x--9\8\7\6--7-7-7-7-4444444--|
E|--5-x--2-x--7\6\5\4--7-x--2-x--7-7-7-7-4-4-4-4--|--5-x--2-x--7\6\5\4--5-5-5-5-2222222--|


Chorus:

e|-----------------------------------------------------------------------|
B|-----------------------------------------------------------------------|
G|--4-4-4-4-4-4-4-4-6-6-6-6-6-6-6-6-9-9-9-9-9-9-9-9-11-11-11-11-9-9-9-9--|
D|--4-4-4-4-4-4-4-4-6-6-6-6-6-6-6-6-9-9-9-9-9-9-9-9-11-11-11-11-9-9-9-9--| x2
A|--2-2-2-2-2-2-2-2-4-4-4-4-4-4-4-4-7-7-7-7-7-7-7-7--9--9--9--9-7-7-7-7--|
E|-----------------------------------------------------------------------|



Bridge:

e|--------------------------------------------|
B|-----------------9-----------------7--------|
G|--4-4-4-4----7-9---------------7-9---9-7----|
D|--4-4-4-4--9--------4-4-4-4--9-----------9--| x2
A|--2-2-2-2-----------4-4-4-4-----------------|
E|--------------------2-2-2-2-----------------|


Outro:

e|------------------------------------------------------------------------------------------|
B|------------------------------------------------------------------------------------------|
G|------------------------------------------------------------------------------------------|
D|--9-9-9\8\7\6-6-6-6/7/8/9-9-9-9\8\7\6-6-6-6/7/8/9-9-9-9\8\7\6-6-6-6-6\5\4-4-4-4-66666666--|
A|--9-9-9\8\7\6-6-6-6/7/8/9-9-9-9\8\7\6-6-6-6/7/8/9-9-9-9\8\7\6-6-6-6-6\5\4-4-4-4-77777777--|
E|--7-7-7\6\5\4-4-4-4/5/6/7-7-7-7\6\5\4-4-4-4/5/6/7-7-7-7\6\5\4-4-4-4-4\3\2-2-2-2-55555555--|


| /  slide up
| \  slide down
| h  hammer-on
| p  pull-off
| ~  vibrato
| +  harmonic
| x  Mute note
===============================================================================
Suggest correction
comments
print report bad tab
9 comments total. Showing first comments.
0 reply
hbrewer 10 Aug 09, 2006 11:41 AM

i was first ha ha

0 reply
Captain_Scarlet 10 Aug 28, 2006 10:15 AM

Hell yes babes

0 reply
hbrewer 10 Oct 11, 2006 03:13 PM

great tab
cant stop playing it

guest
You may want to rate the tab now too:
select rating
Wanna post a correction for this tab? Suggest correction