Oops, an error
Loading. Please wait.

Henrietta Bass Tab

version 2
version 2

Whole song

Interactive

2,581 views 3 this week
2 commentsread comments
1 2 3 4 5
accurate
x 6
add to favorites
launch autoscroll
font size
0
reset
guitar tuner
Autoscroll
slow
fast
+/-
esc
set tempo
stop
Help us to improve Ultimate-Guitar.com Take our survey!
×
Difficulty
intermediate
Band: The Fratellis
Song Name: Henrietta
Tuning: Standard

This is almost perfect except maybe for timing

Intro/Verse

G|-------------------------------------------------------|
D|---9--9---6--6---4--4----------------------------------| 
A|-----------------------55555555------------------------|
E|-7--7---4--4---2--2------------------------------------|


Bridge 

G|----------------------------------------------|
D|----------------------------------------------|
A|----------------------------------------------|
E|-0----2----7-6-5-4-44----0----2----7-7--4444--|

G|----------------------------------------------|
D|---------------------------5----5-------------|
A|----------------------------------------------|
E|-0----2----7-6-5-4-44----3----3----2222-------|


Chorus 

G|-----------------------------------------------------------------|
D|---------------------------------2-2-2-2-2-2-2-2-----------------| X 2
A|-2-2-2-2-2-2-2-2-4-4-4-4-4-4-4-4-----------------5-5-5-5-4-4-4-4-|
E|-----------------------------------------------------------------|

Alt Verse  - "Wah Wah Wah Wow..."

G|-------------------------------------------------|
D|---9---9---------------6---6--------9---9--------|
A|----------------11\----------/12-----------6-7-9-|
E|-7---7---6-----------4---4--------7---7----------|

G|---------------------|
D|---6---6-------------|
A|----------------11\--|
E|-4---4---------------|

Alt Chorus 1

G|------------------------------------------------------|
D|---------------------2-2-2-2-2-2-2-2------------------|
A|-2--------4-4-------------------------5-5-5-5-4-4-4-4-|
E|------------------------------------------------------|

Alt Chorus 2

G|------------------------------------------------------------|
D|---------------------------2-2-2-2-2-2-2-2------------------|
A|-2--------4-4-4-4-4-4-4-4-----------------5-5-5-5-4-4-4-4---|
E|------------------------------------------------------------|

Ending - "Oh come on..."

G|------------------------------------------------|
D|------------------------------------------------|
A|------------------------------------------------|
E|-7-7-7-7-6-5-4-4-4-4-5-6-7-7-7-7-6-5-4-4-4-4----|

G|----------------------------------------------------------|
D|----------------------------------------------------------|
A|----------------------------------------5-5-5-5-5-5-5-5---|
E|-5-6-7-7-7-7-6-5-4-4-4-4-3-2-2-2-2-2-2--------------------|



Thats all the parts, figure out the order, not that hard.


| /  slide up
| \  slide down
| h  hammer-on
| p  pull-off
| ~  vibrato
| +  harmonic
| x  Mute note
Suggest correction
What's this?
You can suggest a correction to this tab. Community and Mods will review your correction and vote to approve or reject it.
comments
print report bad tab
2 comments total.
0 reply
stuart_cowan90 346 wrote on September 14 2006, 06:07 pm

nice tab

0 reply
Mike_Yates_Bass 37 wrote on March 30 2007, 04:38 pm

this is really wrong! version 1 is spot on

guest
You may want to rate the tab now too:
select rating
Please do not post tabs as comments. Select "correction" instead!