Oops, an error
Loading. Please wait.

Henrietta Tab

version 3
version 3

Whole song

Interactive

52,255 views 84 this week
6 commentsread comments
1 2 3 4 5
x 30
add to favorites
launch autoscroll
font size
0
reset
how to read this tab
guitar tuner
backing track
0:00
0:00
×
Best way to learn
"Henrietta"
Autoscroll
slow
fast
+/-
esc
set tempo
stop
Author
Difficulty
[Intro]
     E     E  E  E  E  E  E.  S    E  E  E  E  E  E  E.  S
e|--------7-----7-----7--7---7-|-----7-----7-----7--7---7-|
B|--------7-----7-----7--7---7-|-----7-----7-----7--7---7-|
G|--------8-----8-----8--8-----|-----8-----8-----8--8-----|
D|--------9-----9-----9--9-----|-----9-----9-----9--9-----|
A|--------9-----9-----9--9-----|-----9-----9-----9--9-----|
E|--7--------7-----7-----------|--7-----7-----7-----------|

                                                   [Verse]
    E  E  E  E  E  E  E.  S    S S S S S S S S E     E     E  E  E  E  E  E.  S
e|-----7-----7-----7--7---7-|--7-7-7-7-7-7-7-7-7--|--------7-----7-----7--7---7-|
B|-----7-----7-----7--7---7-|--7-7-7-7-7-7-7-7-7--|--------7-----7-----7--7---7-|
G|-----8-----8-----8--8-----|--8-8-8-8-8-8-8-8-8--|--------8-----8-----8--8-----|
D|-----9-----9-----9--9-----|--9-9-9-9-9-9-9-9-9--|--------9-----9-----9--9-----|
A|-----9-----9-----9--9-----|--9-9-9-9-9-9-9-9-9--|--------9-----9-----9--9-----|
E|--7-----7-----7-----------|--7-7-7-7-7-7-7-7-7--|--7--------7-----7-----------|

    E  E  E  E  E  E  E.  S    E  E  E  E  E  E  E.  S
e|-----4-----4-----4--4---4-|-----2-----2-----2--2---2-|
B|-----4-----4-----4--4---4-|-----2-----2-----2--2---2-|
G|-----5-----5-----5--5-----|-----3-----3-----3--3-----|
D|-----6-----6-----6--6-----|-----4-----4-----4--4-----|
A|-----6-----6-----6--6-----|-----4-----4-----4--4-----|
E|--4-----4-----4-----------|--2-----2-----2-----------|

    E  E  E  E  E  E  E  E     E  E  E  E  E  E  E.  S
e|--0--0--0--0--0--0--0--0--|-----7-----7-----7--7---7-|
B|--0--0--0--0--0--0--0--0--|-----7-----7-----7--7---7-|
G|--7--7--7--7--7--7--7--7--|-----8-----8-----8--8-----|
D|--6--6--6--6--6--6--6--6--|-----9-----9-----9--9-----|
A|--7--7--7--7--7--7--7--7--|-----9-----9-----9--9-----|
E|--0--0--0--0--0--0--0--0--|--7-----7-----7-----------|

    E  E  E  E  E  E  E.  S    E  E  E  E  E  E  E.  S
e|-----4-----4-----4--4---4-|-----2-----2-----2--2---2-|
B|-----4-----4-----4--4---4-|-----2-----2-----2--2---2-|
G|-----5-----5-----5--5-----|-----3-----3-----3--3-----|
D|-----6-----6-----6--6-----|-----4-----4-----4--4-----|
A|-----6-----6-----6--6-----|-----4-----4-----4--4-----|
E|--4-----4-----4-----------|--2-----2-----2-----------|

    E  E  E  E  E  E  E  E     E  E  E  E  E  E  E.  S
e|--0--0--0--0--0--0--0--0--|-----7-----7-----7--7---7-|
B|--0--0--0--0--0--0--0--0--|-----7-----7-----7--7---7-|
G|--7--7--7--7--7--7--7--7--|-----8-----8-----8--8-----|
D|--6--6--6--6--6--6--6--6--|-----9-----9-----9--9-----|
A|--7--7--7--7--7--7--7--7--|-----9-----9-----9--9-----|
E|--0--0--0--0--0--0--0--0--|--7-----7-----7-----------|

    E  E  E  E  E  E  E.  S    E  E  E  E  E  E  E.  S
e|-----4-----4-----4--4---4-|-----2-----2-----2--2---2-|
B|-----4-----4-----4--4---4-|-----2-----2-----2--2---2-|
G|-----5-----5-----5--5-----|-----3-----3-----3--3-----|
D|-----6-----6-----6--6-----|-----4-----4-----4--4-----|
A|-----6-----6-----6--6-----|-----4-----4-----4--4-----|
E|--4-----4-----4-----------|--2-----2-----2-----------|

                             [Bridge]
    E  E  E  E  E  E  E  E     E      S E  S S S E  S E  S S S
e|--0--0--0--0--0--0--0--0--|--0------0-0--0-0-0-2--2-2--2-2-2-|
B|--0--0--0--0--0--0--0--0--|--0------0-0--0-0-0-2--2-2--2-2-2-|
G|--7--7--7--7--7--7--7--7--|--1------1-1--1-1-1-3--3-3--3-3-3-|
D|--6--6--6--6--6--6--6--6--|--2------2-2--2-2-2-4--4-4--4-4-4-|
A|--7--7--7--7--7--7--7--7--|--2------2-2--2-2-2-4--4-4--4-4-4-|
E|--0--0--0--0--0--0--0--0--|--0------0-0--0-0-0-2--2-2--2-2-2-|

    E  E  E  Q    S S S S S S    E  S E  S S S E  S E  S S S
e|--7--6--5--4----4-4-4-4-4-4-|--0--0-0--0-0-0-2--2-2--2-2-2-|
B|--7--6--5--4----4-4-4-4-4-4-|--0--0-0--0-0-0-2--2-2--2-2-2-|
G|--8--7--6--5----5-5-5-5-5-5-|--1--1-1--1-1-1-3--3-3--3-3-3-|
D|--9--8--7--6----6-6-6-6-6-6-|--2--2-2--2-2-2-4--4-4--4-4-4-|
A|--9--8--7--6----6-6-6-6-6-6-|--2--2-2--2-2-2-4--4-4--4-4-4-|
E|--7--6--5--4----4-4-4-4-4-4-|--0--0-0--0-0-0-2--2-2--2-2-2-|

    E  S E  S S S E  E  E  E     E  S E  S S S E  S E  S S S
e|--7--7-7--7-7-7-4--4--4--4--|--0--0-0--0-0-0-2--2-2--2-2-2-|
B|--7--7-7--7-7-7-4--4--4--4--|--0--0-0--0-0-0-2--2-2--2-2-2-|
G|--8--8-8--8-8-8-5--5--5--5--|--1--1-1--1-1-1-3--3-3--3-3-3-|
D|--9--9-9--9-9-9-6--6--6--6--|--2--2-2--2-2-2-4--4-4--4-4-4-|
A|--9--9-9--9-9-9-6--6--6--6--|--2--2-2--2-2-2-4--4-4--4-4-4-|
E|--7--7-7--7-7-7-4--4--4--4--|--0--0-0--0-0-0-2--2-2--2-2-2-|

    E  E  E  Q    S S S S S S    E  E  E  E  E  E  Q       S S S S S S S S E
e|--7--6--5--4----4-4-4-4-4-4-|-----3-----3-----3--3----|--2-2-2-2-2-2-2-2-2--|
B|--7--6--5--4----4-4-4-4-4-4-|-----3-----3-----3--3----|--2-2-2-2-2-2-2-2-2--|
G|--8--7--6--5----5-5-5-5-5-5-|-----4-----4-----4--4----|--3-3-3-3-3-3-3-3-3--|
D|--9--8--7--6----6-6-6-6-6-6-|-----5-----5-----5--5----|--4-4-4-4-4-4-4-4-4--|
A|--9--8--7--6----6-6-6-6-6-6-|-----5-----5-----5--5----|--4-4-4-4-4-4-4-4-4--|
E|--7--6--5--4----4-4-4-4-4-4-|--3-----3-----3----------|--2-2-2-2-2-2-2-2-2--|

[Chorus]
    E      S E  S S S E  S E  S S S     E   S  E   S  S  S  E   S  E   S  S  S
e|--7------7-7--7-7-7-7--7-7--7-7-7-|---9---9--9---9--9--9--9---9--9---9--9--9-|
B|--7------7-7--7-7-7-7--7-7--7-7-7-|---9---9--9---9--9--9--9---9--9---9--9--9-|
G|--8------8-8--8-8-8-8--8-8--8-8-8-|--10--10-10--10-10-10-10--10-10--10-10-10-|
D|--9------9-9--9-9-9-9--9-9--9-9-9-|--11--11-11--11-11-11-11--11-11--11-11-11-|
A|--9------9-9--9-9-9-9--9-9--9-9-9-|--11--11-11--11-11-11-11--11-11--11-11-11-|
E|--7------7-7--7-7-7-7--7-7--7-7-7-|---9---9--9---9--9--9--9---9--9---9--9--9-|

    E  S E  S S S E  S E  S S S    E  S E  S S S E  S E  S S S
e|--0--0-0--0-0-0-0--0-0--0-0-0-|--3--3-3--3-3-3-2--2-2--2-2-2-|
B|--0--0-0--0-0-0-0--0-0--0-0-0-|--3--3-3--3-3-3-2--2-2--2-2-2-|
G|--1--1-1--1-1-1-1--1-1--1-1-1-|--4--4-4--4-4-4-3--3-3--3-3-3-|
D|--2--2-2--2-2-2-2--2-2--2-2-2-|--5--5-5--5-5-5-4--4-4--4-4-4-|
A|--2--2-2--2-2-2-2--2-2--2-2-2-|--5--5-5--5-5-5-4--4-4--4-4-4-|
E|--0--0-0--0-0-0-0--0-0--0-0-0-|--3--3-3--3-3-3-2--2-2--2-2-2-|

    E  S E  S S S E  S E  S S S     E   S  E   S  S  S  E   S  E   S  S  S
e|--7--7-7--7-7-7-7--7-7--7-7-7-|---9---9--9---9--9--9--9---9--9---9--9--9-|
B|--7--7-7--7-7-7-7--7-7--7-7-7-|---9---9--9---9--9--9--9---9--9---9--9--9-|
G|--8--8-8--8-8-8-8--8-8--8-8-8-|--10--10-10--10-10-10-10--10-10--10-10-10-|
D|--9--9-9--9-9-9-9--9-9--9-9-9-|--11--11-11--11-11-11-11--11-11--11-11-11-|
A|--9--9-9--9-9-9-9--9-9--9-9-9-|--11--11-11--11-11-11-11--11-11--11-11-11-|
E|--7--7-7--7-7-7-7--7-7--7-7-7-|---9---9--9---9--9--9--9---9--9---9--9--9-|

    E  S E  S S S E  S E  S S S    E  S E  S S S E  S E  S S S
e|--0--0-0--0-0-0-0--0-0--0-0-0-|--3--3-3--3-3-3-2--2-2--2-2-2-|
B|--0--0-0--0-0-0-0--0-0--0-0-0-|--3--3-3--3-3-3-2--2-2--2-2-2-|
G|--1--1-1--1-1-1-1--1-1--1-1-1-|--4--4-4--4-4-4-3--3-3--3-3-3-|
D|--2--2-2--2-2-2-2--2-2--2-2-2-|--5--5-5--5-5-5-4--4-4--4-4-4-|
A|--2--2-2--2-2-2-2--2-2--2-2-2-|--5--5-5--5-5-5-4--4-4--4-4-4-|
E|--0--0-0--0-0-0-0--0-0--0-0-0-|--3--3-3--3-3-3-2--2-2--2-2-2-|

[Verse]
    E     E  E  E  E  E  E.  S    E  E  E  E  E  E  E.  S
e|--------7-----7-----7--7---7-|-----4-----4-----4--4---4-|
B|--------7-----7-----7--7---7-|-----4-----4-----4--4---4-|
G|--------8-----8-----8--8-----|-----5-----5-----5--5-----|
D|--------9-----9-----9--9-----|-----6-----6-----6--6-----|
A|--------9-----9-----9--9-----|-----6-----6-----6--6-----|
E|--7--------7-----7-----------|--4-----4-----4-----------|

    E  E  E  E  E  E  E.  S    E  E  E  E  E  E  E  E
e|-----2-----2-----2--2---2-|--0--0--0--0--0--0--0--0--|
B|-----2-----2-----2--2---2-|--0--0--0--0--0--0--0--0--|
G|-----3-----3-----3--3-----|--7--7--7--7--7--7--7--7--|
D|-----4-----4-----4--4-----|--6--6--6--6--6--6--6--6--|
A|-----4-----4-----4--4-----|--7--7--7--7--7--7--7--7--|
E|--2-----2-----2-----------|--0--0--0--0--0--0--0--0--|

    E  E  E  E  E  E  E.  S    E  E  E  E  E  E  E.  S
e|-----7-----7-----7--7---7-|-----4-----4-----4--4---4-|
B|-----7-----7-----7--7---7-|-----4-----4-----4--4---4-|
G|-----8-----8-----8--8-----|-----5-----5-----5--5-----|
D|-----9-----9-----9--9-----|-----6-----6-----6--6-----|
A|-----9-----9-----9--9-----|-----6-----6-----6--6-----|
E|--7-----7-----7-----------|--4-----4-----4-----------|

    E  E  E  E  E  E  E.  S    E  E  E  E  E  E  E  E
e|-----2-----2-----2--2---2-|--0--0--0--0--0--0--0--0--|
B|-----2-----2-----2--2---2-|--0--0--0--0--0--0--0--0--|
G|-----3-----3-----3--3-----|--7--7--7--7--7--7--7--7--|
D|-----4-----4-----4--4-----|--6--6--6--6--6--6--6--6--|
A|-----4-----4-----4--4-----|--7--7--7--7--7--7--7--7--|
E|--2-----2-----2-----------|--0--0--0--0--0--0--0--0--|

    E  E  E  E  E  E  E.  S    E  E  E  E  E  E  E.  S
e|-----7-----7-----7--7---7-|-----4-----4-----4--4---4-|
B|-----7-----7-----7--7---7-|-----4-----4-----4--4---4-|
G|-----8-----8-----8--8-----|-----5-----5-----5--5-----|
D|-----9-----9-----9--9-----|-----6-----6-----6--6-----|
A|-----9-----9-----9--9-----|-----6-----6-----6--6-----|
E|--7-----7-----7-----------|--4-----4-----4-----------|

    E  E  E  E  E  E  E.  S    E  E  E  E  E  E  E  E
e|-----2-----2-----2--2---2-|--0--0--0--0--0--0--0--0--|
B|-----2-----2-----2--2---2-|--0--0--0--0--0--0--0--0--|
G|-----3-----3-----3--3-----|--7--7--7--7--7--7--7--7--|
D|-----4-----4-----4--4-----|--6--6--6--6--6--6--6--6--|
A|-----4-----4-----4--4-----|--7--7--7--7--7--7--7--7--|
E|--2-----2-----2-----------|--0--0--0--0--0--0--0--0--|

    E  E  E  E  E  E  E.  S    E  E  E  E  E  E  E.  S
e|-----7-----7-----7--7---7-|-----4-----4-----4--4---4-|
B|-----7-----7-----7--7---7-|-----4-----4-----4--4---4-|
G|-----8-----8-----8--8-----|-----5-----5-----5--5-----|
D|-----9-----9-----9--9-----|-----6-----6-----6--6-----|
A|-----9-----9-----9--9-----|-----6-----6-----6--6-----|
E|--7-----7-----7-----------|--4-----4-----4-----------|

    E  E  E  E  E  E  E.  S    E  E  E  E  E  E  E  E
e|-----2-----2-----2--2---2-|--0--0--0--0--0--0--0--0--|
B|-----2-----2-----2--2---2-|--0--0--0--0--0--0--0--0--|
G|-----3-----3-----3--3-----|--7--7--7--7--7--7--7--7--|
D|-----4-----4-----4--4-----|--6--6--6--6--6--6--6--6--|
A|-----4-----4-----4--4-----|--7--7--7--7--7--7--7--7--|
E|--2-----2-----2-----------|--0--0--0--0--0--0--0--0--|

[Bridge]
    E      S E  S S S E  S E  S S S    E  E  E  Q    S S S S S S
e|--0------0-0--0-0-0-2--2-2--2-2-2-|--7--6--5--4----4-4-4-4-4-4-|
B|--0------0-0--0-0-0-2--2-2--2-2-2-|--7--6--5--4----4-4-4-4-4-4-|
G|--1------1-1--1-1-1-3--3-3--3-3-3-|--8--7--6--5----5-5-5-5-5-5-|
D|--2------2-2--2-2-2-4--4-4--4-4-4-|--9--8--7--6----6-6-6-6-6-6-|
A|--2------2-2--2-2-2-4--4-4--4-4-4-|--9--8--7--6----6-6-6-6-6-6-|
E|--0------0-0--0-0-0-2--2-2--2-2-2-|--7--6--5--4----4-4-4-4-4-4-|

    E  S E  S S S E  S E  S S S    E  S E  S S S E  E  E  E
e|--0--0-0--0-0-0-2--2-2--2-2-2-|--7--7-7--7-7-7-4--4--4--4--|
B|--0--0-0--0-0-0-2--2-2--2-2-2-|--7--7-7--7-7-7-4--4--4--4--|
G|--1--1-1--1-1-1-3--3-3--3-3-3-|--8--8-8--8-8-8-5--5--5--5--|
D|--2--2-2--2-2-2-4--4-4--4-4-4-|--9--9-9--9-9-9-6--6--6--6--|
A|--2--2-2--2-2-2-4--4-4--4-4-4-|--9--9-9--9-9-9-6--6--6--6--|
E|--0--0-0--0-0-0-2--2-2--2-2-2-|--7--7-7--7-7-7-4--4--4--4--|

    E  S E  S S S E  S E  S S S    E  E  E  Q    S S S S S S
e|--0--0-0--0-0-0-2--2-2--2-2-2-|--7--6--5--4----4-4-4-4-4-4-|
B|--0--0-0--0-0-0-2--2-2--2-2-2-|--7--6--5--4----4-4-4-4-4-4-|
G|--1--1-1--1-1-1-3--3-3--3-3-3-|--8--7--6--5----5-5-5-5-5-5-|
D|--2--2-2--2-2-2-4--4-4--4-4-4-|--9--8--7--6----6-6-6-6-6-6-|
A|--2--2-2--2-2-2-4--4-4--4-4-4-|--9--8--7--6----6-6-6-6-6-6-|
E|--0--0-0--0-0-0-2--2-2--2-2-2-|--7--6--5--4----4-4-4-4-4-4-|

    E  E  E  E  E  E  Q       S S S S S S S S E
e|-----3-----3-----3--3----|--2-2-2-2-2-2-2-2-2--|
B|-----3-----3-----3--3----|--2-2-2-2-2-2-2-2-2--|
G|-----4-----4-----4--4----|--3-3-3-3-3-3-3-3-3--|
D|-----5-----5-----5--5----|--4-4-4-4-4-4-4-4-4--|
A|-----5-----5-----5--5----|--4-4-4-4-4-4-4-4-4--|
E|--3-----3-----3----------|--2-2-2-2-2-2-2-2-2--|

[Chorus]
    E      S E  S S S E  S E  S S S     E   S  E   S  S  S  E   S  E   S  S  S
e|--7------7-7--7-7-7-7--7-7--7-7-7-|---9---9--9---9--9--9--9---9--9---9--9--9-|
B|--7------7-7--7-7-7-7--7-7--7-7-7-|---9---9--9---9--9--9--9---9--9---9--9--9-|
G|--8------8-8--8-8-8-8--8-8--8-8-8-|--10--10-10--10-10-10-10--10-10--10-10-10-|
D|--9------9-9--9-9-9-9--9-9--9-9-9-|--11--11-11--11-11-11-11--11-11--11-11-11-|
A|--9------9-9--9-9-9-9--9-9--9-9-9-|--11--11-11--11-11-11-11--11-11--11-11-11-|
E|--7------7-7--7-7-7-7--7-7--7-7-7-|---9---9--9---9--9--9--9---9--9---9--9--9-|

    E  S E  S S S E  S E  S S S    E  S E  S S S E  S E  S S S
e|--0--0-0--0-0-0-0--0-0--0-0-0-|--3--3-3--3-3-3-2--2-2--2-2-2-|
B|--0--0-0--0-0-0-0--0-0--0-0-0-|--3--3-3--3-3-3-2--2-2--2-2-2-|
G|--1--1-1--1-1-1-1--1-1--1-1-1-|--4--4-4--4-4-4-3--3-3--3-3-3-|
D|--2--2-2--2-2-2-2--2-2--2-2-2-|--5--5-5--5-5-5-4--4-4--4-4-4-|
A|--2--2-2--2-2-2-2--2-2--2-2-2-|--5--5-5--5-5-5-4--4-4--4-4-4-|
E|--0--0-0--0-0-0-0--0-0--0-0-0-|--3--3-3--3-3-3-2--2-2--2-2-2-|

    E  S E  S S S E  S E  S S S     E   S  E   S  S  S  E   S  E   S  S  S
e|--7--7-7--7-7-7-7--7-7--7-7-7-|---9---9--9---9--9--9--9---9--9---9--9--9-|
B|--7--7-7--7-7-7-7--7-7--7-7-7-|---9---9--9---9--9--9--9---9--9---9--9--9-|
G|--8--8-8--8-8-8-8--8-8--8-8-8-|--10--10-10--10-10-10-10--10-10--10-10-10-|
D|--9--9-9--9-9-9-9--9-9--9-9-9-|--11--11-11--11-11-11-11--11-11--11-11-11-|
A|--9--9-9--9-9-9-9--9-9--9-9-9-|--11--11-11--11-11-11-11--11-11--11-11-11-|
E|--7--7-7--7-7-7-7--7-7--7-7-7-|---9---9--9---9--9--9--9---9--9---9--9--9-|

    E  S E  S S S E  S E  S S S    E  S E  S S S E  S E  S S S
e|--0--0-0--0-0-0-0--0-0--0-0-0-|--3--3-3--3-3-3-2--2-2--2-2-2-|
B|--0--0-0--0-0-0-0--0-0--0-0-0-|--3--3-3--3-3-3-2--2-2--2-2-2-|
G|--1--1-1--1-1-1-1--1-1--1-1-1-|--4--4-4--4-4-4-3--3-3--3-3-3-|
D|--2--2-2--2-2-2-2--2-2--2-2-2-|--5--5-5--5-5-5-4--4-4--4-4-4-|
A|--2--2-2--2-2-2-2--2-2--2-2-2-|--5--5-5--5-5-5-4--4-4--4-4-4-|
E|--0--0-0--0-0-0-0--0-0--0-0-0-|--3--3-3--3-3-3-2--2-2--2-2-2-|

    E  S S E  S S E  S S E  S     E   E  E  Q.         E  S S E  S S E  S S E  S
e|-----7-7----7-7----7-7----7-|---------------------|-----2-2----2-2----2-2----2-|
B|-----7-7----7-7----7-7----7-|-------------9~------|-----2-2----2-2----2-2----2-|
G|-----8-8----8-8----8-8----8-|----------8----------|-----3-3----3-3----3-3----3-|
D|-----9-9----9-9----9-9----9-|------10-------------|-----4-4----4-4----4-4----4-|
A|-----9-9----9-9----9-9----9-|--11-----------------|-----4-4----4-4----4-4----4-|
E|----------------------------|---------------------|----------------------------|

    E  E  E  E  E  E  E      E  S S E  S S E  S S E  S     E   E  E  Q.
e|-----------0------------|-----7-7----7-7----7-7----7-|---------------------|
B|------------------------|-----7-7----7-7----7-7----7-|-------------9~------|
G|--------7-----7---------|-----8-8----8-8----8-8----8-|----------8----------|
D|-----6-----------6------|-----9-9----9-9----9-9----9-|------10-------------|
A|--7-----------------7~--|-----9-9----9-9----9-9----9-|--11-----------------|
E|------------------------|----------------------------|---------------------|

    E  S S E  S S E  S S E  S    E  E  E  E  E  E  E
e|-----2-2----2-2----2-2----2-|-----------0------------|
B|-----2-2----2-2----2-2----2-|------------------------|
G|-----3-3----3-3----3-3----3-|--------7-----7---------|
D|-----4-4----4-4----4-4----4-|-----6-----------6------|
A|-----4-4----4-4----4-4----4-|--7-----------------7~--|
E|----------------------------|------------------------|

[Bridge]
    E      S E  S S S E  S E  S S S    E  E  E  Q    S S S S S S
e|--0------0-0--0-0-0-2--2-2--2-2-2-|--7--6--5--4----4-4-4-4-4-4-|
B|--0------0-0--0-0-0-2--2-2--2-2-2-|--7--6--5--4----4-4-4-4-4-4-|
G|--1------1-1--1-1-1-3--3-3--3-3-3-|--8--7--6--5----5-5-5-5-5-5-|
D|--2------2-2--2-2-2-4--4-4--4-4-4-|--9--8--7--6----6-6-6-6-6-6-|
A|--2------2-2--2-2-2-4--4-4--4-4-4-|--9--8--7--6----6-6-6-6-6-6-|
E|--0------0-0--0-0-0-2--2-2--2-2-2-|--7--6--5--4----4-4-4-4-4-4-|

    E  S E  S S S E  S E  S S S    E  S E  S S S E  E  E  E
e|--0--0-0--0-0-0-2--2-2--2-2-2-|--7--7-7--7-7-7-4--4--4--4--|
B|--0--0-0--0-0-0-2--2-2--2-2-2-|--7--7-7--7-7-7-4--4--4--4--|
G|--1--1-1--1-1-1-3--3-3--3-3-3-|--8--8-8--8-8-8-5--5--5--5--|
D|--2--2-2--2-2-2-4--4-4--4-4-4-|--9--9-9--9-9-9-6--6--6--6--|
A|--2--2-2--2-2-2-4--4-4--4-4-4-|--9--9-9--9-9-9-6--6--6--6--|
E|--0--0-0--0-0-0-2--2-2--2-2-2-|--7--7-7--7-7-7-4--4--4--4--|

    E  S E  S S S E  S E  S S S    E  E  E  Q    S S S S S S
e|--0--0-0--0-0-0-2--2-2--2-2-2-|--7--6--5--4----4-4-4-4-4-4-|
B|--0--0-0--0-0-0-2--2-2--2-2-2-|--7--6--5--4----4-4-4-4-4-4-|
G|--1--1-1--1-1-1-3--3-3--3-3-3-|--8--7--6--5----5-5-5-5-5-5-|
D|--2--2-2--2-2-2-4--4-4--4-4-4-|--9--8--7--6----6-6-6-6-6-6-|
A|--2--2-2--2-2-2-4--4-4--4-4-4-|--9--8--7--6----6-6-6-6-6-6-|
E|--0--0-0--0-0-0-2--2-2--2-2-2-|--7--6--5--4----4-4-4-4-4-4-|

    E  E  E  E  E  E  Q       S S S S S S S S E     E      E   E
e|-----3-----3-----3--3----|--2-2-2-2-2-2-2-2-2--|--7--|---9---9--|
B|-----3-----3-----3--3----|--2-2-2-2-2-2-2-2-2--|--7--|---9---9--|
G|-----4-----4-----4--4----|--3-3-3-3-3-3-3-3-3--|--8--|--10--10--|
D|-----5-----5-----5--5----|--4-4-4-4-4-4-4-4-4--|--9--|--11--11--|
A|-----5-----5-----5--5----|--4-4-4-4-4-4-4-4-4--|--9--|--11--11--|
E|--3-----3-----3----------|--2-2-2-2-2-2-2-2-2--|--7--|---9---9--|

    E  S E  S S S E  S E  S S S    E  S E  S S S E  S E  S S S
e|--0--0-0--0-0-0-0--0-0--0-0-0-|--3--3-3--3-3-3-2--2-2--2-2-2-|
B|--0--0-0--0-0-0-0--0-0--0-0-0-|--3--3-3--3-3-3-2--2-2--2-2-2-|
G|--1--1-1--1-1-1-1--1-1--1-1-1-|--4--4-4--4-4-4-3--3-3--3-3-3-|
D|--2--2-2--2-2-2-2--2-2--2-2-2-|--5--5-5--5-5-5-4--4-4--4-4-4-|
A|--2--2-2--2-2-2-2--2-2--2-2-2-|--5--5-5--5-5-5-4--4-4--4-4-4-|
E|--0--0-0--0-0-0-0--0-0--0-0-0-|--3--3-3--3-3-3-2--2-2--2-2-2-|

    E  S E  S S S E  S E  S S S     E   S  E   S  S  S  E   S  E   S  S  S
e|--7--7-7--7-7-7-7--7-7--7-7-7-|---9---9--9---9--9--9--9---9--9---9--9--9-|
B|--7--7-7--7-7-7-7--7-7--7-7-7-|---9---9--9---9--9--9--9---9--9---9--9--9-|
G|--8--8-8--8-8-8-8--8-8--8-8-8-|--10--10-10--10-10-10-10--10-10--10-10-10-|
D|--9--9-9--9-9-9-9--9-9--9-9-9-|--11--11-11--11-11-11-11--11-11--11-11-11-|
A|--9--9-9--9-9-9-9--9-9--9-9-9-|--11--11-11--11-11-11-11--11-11--11-11-11-|
E|--7--7-7--7-7-7-7--7-7--7-7-7-|---9---9--9---9--9--9--9---9--9---9--9--9-|

    E  S E  S S S E  S E  S S S    E  S E  S S S E  S E  S S S
e|--0--0-0--0-0-0-0--0-0--0-0-0-|--3--3-3--3-3-3-2--2-2--2-2-2-|
B|--0--0-0--0-0-0-0--0-0--0-0-0-|--3--3-3--3-3-3-2--2-2--2-2-2-|
G|--1--1-1--1-1-1-1--1-1--1-1-1-|--4--4-4--4-4-4-3--3-3--3-3-3-|
D|--2--2-2--2-2-2-2--2-2--2-2-2-|--5--5-5--5-5-5-4--4-4--4-4-4-|
A|--2--2-2--2-2-2-2--2-2--2-2-2-|--5--5-5--5-5-5-4--4-4--4-4-4-|
E|--0--0-0--0-0-0-0--0-0--0-0-0-|--3--3-3--3-3-3-2--2-2--2-2-2-|

[Chorus]
    E      S E  S S S E  S E  S S S     E   S  E   S  S  S  E   S  E   S  S  S
e|--7------7-7--7-7-7-7--7-7--7-7-7-|---9---9--9---9--9--9--9---9--9---9--9--9-|
B|--7------7-7--7-7-7-7--7-7--7-7-7-|---9---9--9---9--9--9--9---9--9---9--9--9-|
G|--8------8-8--8-8-8-8--8-8--8-8-8-|--10--10-10--10-10-10-10--10-10--10-10-10-|
D|--9------9-9--9-9-9-9--9-9--9-9-9-|--11--11-11--11-11-11-11--11-11--11-11-11-|
A|--9------9-9--9-9-9-9--9-9--9-9-9-|--11--11-11--11-11-11-11--11-11--11-11-11-|
E|--7------7-7--7-7-7-7--7-7--7-7-7-|---9---9--9---9--9--9--9---9--9---9--9--9-|

    E  S E  S S S E  S E  S S S    E  S E  S S S E  S E  S S S    E
e|--0--0-0--0-0-0-0--0-0--0-0-0-|--3--3-3--3-3-3-2--2-2--2-2-2-|--7--|
B|--0--0-0--0-0-0-0--0-0--0-0-0-|--3--3-3--3-3-3-2--2-2--2-2-2-|--7--|
G|--1--1-1--1-1-1-1--1-1--1-1-1-|--4--4-4--4-4-4-3--3-3--3-3-3-|--8--|
D|--2--2-2--2-2-2-2--2-2--2-2-2-|--5--5-5--5-5-5-4--4-4--4-4-4-|--9--|
A|--2--2-2--2-2-2-2--2-2--2-2-2-|--5--5-5--5-5-5-4--4-4--4-4-4-|--9--|
E|--0--0-0--0-0-0-0--0-0--0-0-0-|--3--3-3--3-3-3-2--2-2--2-2-2-|--7--|

     E   S  E   S  S  S  E   S  E   S  S  S    E  S E  S S S E  S E  S S S
e|---9---9--9---9--9--9--9---9--9---9--9--9-|--0--0-0--0-0-0-0--0-0--0-0-0-|
B|---9---9--9---9--9--9--9---9--9---9--9--9-|--0--0-0--0-0-0-0--0-0--0-0-0-|
G|--10--10-10--10-10-10-10--10-10--10-10-10-|--1--1-1--1-1-1-1--1-1--1-1-1-|
D|--11--11-11--11-11-11-11--11-11--11-11-11-|--2--2-2--2-2-2-2--2-2--2-2-2-|
A|--11--11-11--11-11-11-11--11-11--11-11-11-|--2--2-2--2-2-2-2--2-2--2-2-2-|
E|---9---9--9---9--9--9--9---9--9---9--9--9-|--0--0-0--0-0-0-0--0-0--0-0-0-|

    E  S E  S S S E  S E  S S S    E  Q    Q    E  E  E
e|--3--3-3--3-3-3-2--2-2--2-2-2-|-----7----7----7--6--5--|
B|--3--3-3--3-3-3-2--2-2--2-2-2-|-----7----7----7--6--5--|
G|--4--4-4--4-4-4-3--3-3--3-3-3-|-----8----8----8--7--6--|
D|--5--5-5--5-5-5-4--4-4--4-4-4-|-----9----9----9--8--7--|
A|--5--5-5--5-5-5-4--4-4--4-4-4-|-----9----9----9--8--7--|
E|--3--3-3--3-3-3-2--2-2--2-2-2-|-----7----7----7--6--5--|

    E  Q    Q    E  E  E     E  Q    Q    E  E  E     E  Q    Q    E  E  E
e|-----4----4----4--5--6--|-----7----7----7--6--5--|-----4----4----4--5--6--|
B|-----4----4----4--5--6--|-----7----7----7--6--5--|-----4----4----4--5--6--|
G|-----5----5----5--6--7--|-----8----8----8--7--6--|-----5----5----5--6--7--|
D|-----6----6----6--7--8--|-----9----9----9--8--7--|-----6----6----6--7--8--|
A|-----6----6----6--7--8--|-----9----9----9--8--7--|-----6----6----6--7--8--|
E|-----4----4----4--5--6--|-----7----7----7--6--5--|-----4----4----4--5--6--|

    E  Q    Q    E  E  E     E  Q    Q    E  E  E     E  E  E  E  E  E  E.  S
e|-----7----7----7--6--5--|-----4----4----4--4--4--|-----2-----2-----2--2---2-|
B|-----7----7----7--6--5--|-----4----4----4--4--4--|-----2-----2-----2--2---2-|
G|-----8----8----8--7--6--|-----5----5----5--5--5--|-----3-----3-----3--3-----|
D|-----9----9----9--8--7--|-----6----6----6--6--6--|-----4-----4-----4--4-----|
A|-----9----9----9--8--7--|-----6----6----6--6--6--|-----4-----4-----4--4-----|
E|-----7----7----7--6--5--|-----4----4----4--4--4--|--2-----2-----2-----------|

    E  E  E  E  E  E  E  E     W
e|--0--0--0--0--0--0--0--0--|--0----------------||
B|--0--0--0--0--0--0--0--0--|--0----------------||
G|--7--7--7--7--7--7--7--7--|--7----------------||
D|--6--6--6--6--6--6--6--6--|--6----------------||
A|--7--7--7--7--7--7--7--7--|--7----------------||
E|--0--0--0--0--0--0--0--0--|--0----------------||

Duration Legend
---------------
W - whole
H - half
Q - quarter
E - 8th
S - 16th
T - 32nd
X - 64th
. - note dotted
|-n-|  - n-tuplets


Tablature Legend
----------------
L - tied note
x - dead note
g - grace note
(n) - ghost note
> - accentuded note
NH - natural harmonic
AH - artificial harmonic
TH - tapped harmonic
SH - semi harmonic
PH - pitch harmonic
h - hammer on
p - pull off
b - bend
br - bendRelease
pb - preBend
pbr - preBendRelease
brb - bendReleaseBend
\n/ - tremolo bar dip
\n - tremolo bar dive
-/n - tremolo bar Release up
/n\ - tremolo bar inverted dip
/n - tremolo bar return
-\n - tremolo bar Release down
S - shift slide
s - legato slide
/ -  slide into from below or out of upwards
\ -  slide into from above or out of downwards
~ - vibrato
W - wide vibrato
tr - trill
TP - tremolo picking
T - tapping
S - slap
P - pop
< - fade in
^ - brush up
v - brush dow
Suggest correction
comments
print report bad tab
6 comments total. Showing first comments.
0 reply
Richardt 41 Aug 25, 2007 08:13 AM

nice

+2 reply
matty_ireland 147 May 28, 2008 09:14 AM

great tab
where you play the 076700 its easier to play an open E chord
It doesnt sound as good but sounds fine all teh same and is a lot easier to get back to the B chord

0 reply
stef123 10 Sep 25, 2008 11:58 AM

i agree with matty ireland

guest
You may want to rate the tab now too:
select rating
Wanna post a correction for this tab? Suggest correction