Oops, an error
Loading. Please wait.

Look Out Sunshine Tab

6,495 views 9 this week
4 commentsread comments
1 2 3 4 5
excellent!
x 3
add to favorites
launch autoscroll
font size
0
reset
how to read this tab
guitar tuner
Tab Pro tools
  • play this tab
  • loop segment
  • change instrument
  • show fretboard
  • metronome
×
Best way to learn
"Look Out Sunshine"
Autoscroll
slow
fast
+/-
esc
set tempo
stop
Contributor
Difficulty
novice
-------------------------------------------------------------------------------
                             LOOK OUT SUNSHINE! - The Fratellis
-------------------------------------------------------------------------------
Tabbed by: Mono
Email: bowdowntothemono@hotmail.co.uk

Right, this one seems a little trickier to tab than the other new Fratellis ones, mainly 
of the verse and solo. I'll have a go though.

Tuning: Standard (EADGBe)

Intro:
e|-7----7----9-----7----7----7----9-9-9-9-12121212--|
B|-7----8----11----7----7----8----111111119-9-9-9---|
G|-8----9----11----8----8----9----1111111111111111--|
D|-9----9----11----9----9----9----1111111111111111--|
A|-9----7----9-----9----9----7----9-9-9-9-9-9-9-9---|
E|-7---------------7----7---------------------------|

Verse Part 1:
e|---------11\-------------|
B|---7-----11\-------------|
G|---8------------9----11--|
D|----------------9----11--| x4
A|--------------7----9-----|
E|-7----11-----------------|

Verse Part 2:
e|-7~---7~---9~--|
B|-7~---8~---11~-|
G|-8~---9~---11~-|
D|-9~---9~---11~-|
A|-9~---7~---9~--|
E|-7~------------|

Verse Part 1 x4
Verse Part 2

Chorus (I'm not sure about some parts of this):
e|-------------------------------------------|
B|-7777-7777-9999-8888----------------88-11--|
G|-8888-8888-9999-9999-------66----88-99-11--|
D|-9999-7777-9999-9999-99-66-66-44-99-99-11--| x2
A|-9999-9999-7777-7777-99-66-44-44-99-77-9---|
E|-7777-7777-----------77-44----22-77--------|

Verse Part 1 x4
Verse Part 2
Verse Part 1 x4
Verse Part 2
Chorus x2

Bridge:
e|----------------------------------|
B|----------------------------------|
G|-6-6-6-6--------------------------|
D|-6-6-6-6-4-4-4-4------4-4-4-4-5~--|
A|-4-4-4-4-4-4-4-4- x3 -4-4-4-4-5~--|
E|---------2-2-2-2------2-2-2-2-3~--|

Bridge contd. (There are two guitar parts here, the solo and the rhythm):
Solo (This might be wrong, I'm a bit bad at solos):
e|------------------------------------------------------------------|
B|------------------------------------------------------------------|
G|------------------------------------------------------------------|
D|------------------------------------------------------------------|
A|---------------------------------------------15-17-17-17br-17-15--|
E|-15--17-15-17-18b--18p17h18p17p15--13--15-17----------------------|

Contd.:
e|-------------------------------------------------------------|
B|-------------------------------------------------------------|
G|-------17-20b-20p17----17b-----------------------------------|
D|-17h19--------------20-----20-17-20--15-13-15--15--10--8--5--|
A|-------------------------------------------------------------|
E|-------------------------------------------------------------|

Rhythm (Just the chorus moved up a fret):
e|-------------------------------------------------------------------|
B|-8-8-8-8--8-8-8-8--10101010-9-9-9-9--------------------------------|
G|-9-9-9-9--9-9-9-9--10101010-10101010---------77---------1010-1212--|
D|-10101010-8-8-8-8--10101010-10101010-1010-77-77-55-1010-1010-1212--|
A|-10101010-10101010-8-8-8-8--8-8-8-8--1010-77-55-55-1010-8-8--1010--|
E|-8-8-8-8--8-8-8-8--------------------8-8--55----33-8-8-------------|

Last chorus:
e|-------------------------------------------------------------------|
B|-8-8-8-8--8-8-8-8--10101010-9-9-9-9---------------------9-9--1212--|
G|-9-9-9-9--9-9-9-9--10101010-10101010---------77----9-9--1010-1212--|
D|-10101010-8-8-8-8--10101010-10101010-1010-77-77-55-1010-1010-1212--|
A|-10101010-10101010-8-8-8-8--8-8-8-8--1010-77-55-55-1010-8-8--1010--|
E|-8-8-8-8--8-8-8-8--------------------8-8--55----33-8-8-------------|

Contd.:
e|----------------------------------------------------|
B|-8-8-8-8--8-8-8-8--10101010-9-9-9-9-----------------|
G|-9-9-9-9--9-9-9-9--10101010-10101010---------77-----|
D|-10101010-8-8-8-8--10101010-10101010-1010-77-77-55--|
A|-10101010-10101010-8-8-8-8--8-8-8-8--1010-77-55-55--|
E|-8-8-8-8--8-8-8-8--------------------8-8--55----33--|

Contd.:
                     Slow down here
e|-------------------------------------------|
B|-------------------------------------------|
G|-----------------------------------10~-----|
D|-1010-77-77-55-10~-14~-15~-99~-10~-10~-10~-|
A|-1010-77-55-55-10~-14~-15~-99~-10~-8~--10~-|
E|-8-8--55----33-8~--12~-13~-77~-8~------8~--|

| /  slide up
| \  slide down
| h  hammer-on
| p  pull-off
| ~  vibrato
| +  harmonic
| x  Mute note
===============================================================================
comments
We did not receive enough feedback on this tab! Please rate:
print report bad tab
1 2 3 4 5
4 comments total. Showing first comments.
0 reply
rockywardie wrote on June 17 2008, 11:55 am

The chorus goes:

B
Tell my friends...
E Em
Getting nowhere, Sleeping somewhere
B G#m C#m F# B E F#
With a girl I dreamed, oh yeah

Then when it moves up, it's

C F Fm
C Am Dm
G C F G

The last, slower, part is: C Am Dm G C F C

0 reply
Womage wrote on July 7 2008, 01:55 pm

Haven't played all of it yet, but the solo seems to be correct,

good tab.

+1 reply
Lucas Townshend wrote on August 8 2008, 09:07 pm

Jon actually plays that E and F# at the first frets,not at the 7th/9th (:

I want to post or [tab]
guest
You may want to rate the tab now too:
select rating
Please do not post tabs as comments. Select "correction" instead!