Oops, an error
Loading. Please wait.

Me And The Devil bass

493 views 1 this week
no commentswrite comment
1 2 3 4 5
1 last vote to show rating
add to favorites
×
Save as Personal and add changes to this tab that will be seen only by you. Learn more ›
×
You can save this tab as Personal to edit and correct it or add notes. All changes will be seen only by you. Learn more »
launch autoscroll
font size
0
reset
guitar tuner
edit
Autoscroll
slow
fast
+/-
esc
set tempo
stop
Author
Difficulty
-------------------------------------------------------------------------------
                      ME AND THE DEVIL - The Fratellis
-------------------------------------------------------------------------------
Tuning: Standard


INTRO
G|-----------------|-----0-0-0-2-4-4-|
D|-2-----------2-2-|-2-4-------------|
A|---2-3---3-2--2--|-----------------|
E|-------3---------|-----------------|

"She said I know..."
G|-----------------------------------------|
D|-----------0-0-0-020-----------0-0-0-020-|
A|-3-3-3-3-3-----------3-3-3-3-3-----------|
E|--------3-------------------3------------|

"I'm gonna sell this soul of mine..."
G|-----------------|
D|-----0-2-----0-2-|
A|---2-------2-----|
E|-0-------0-------|

"You'll find me in silvery chains..."
G|-----------------------------------------|
D|-----------0-0-0-020-----------0-0-0-020-|
A|-3-3-3-3-3-----------3-3-3-3-3-----------|
E|--------3-------------------3------------|

"I'm gonna sell this soul of mine..."
G|-----------------|
D|-----0-2-----0-2-|
A|---2-------2-----|
E|-0-------0-------|

"I'll carry myself..."
G|---------------------------------|
D|-----------2---2---5---5---4---4-|
A|---5---5-0---0---3---3---2---2---|
E|-3---3---------------------------|

"I'm gonna sell this soul of mine..."
G|--------------------0-2-------------------|
D|----0-2-----0-2---2---------0-2---5----4--|
A|--2-------2-----0---------2-----3--3-2--2-| and then the intro riff
E|-0------0---------------0-----------------|

"Well there's an answer..."
G|-----------------------------------------|
D|-----------0-0-0-020-----------0-0-0-020-|
A|-3-3-3-3-3-----------3-3-3-3-3-----------|
E|--------3-------------------3------------|

"I'm gonna sell this soul of mine..."
G|-----------------|
D|-----0-2-----0-2-|
A|---2-------2-----|
E|-0-------0-------|

"I'm digging the dirt..."
G|---------------------------------|
D|-----------2---2---5---5---4---4-|
A|---5---5-0---0---3---3---2---2---|
E|-3---3---------------------------|

"I'm gonna sell this soul of mine..."
G|--------------------0-2---------|
D|----0-2-----0-2---2---------0-2-|
A|--2-------2-----0---------2-----|
E|-0------0---------------0-------|

"I'm gonna lose my lonely mind..."
G|-----------------------------------------------|
D|---5----4------0-2---5----4------0-2---5----4--|
A|-3--3-2--2---2-----3--3-2--2---2-----3--3-2--2-|
E|-----------0-----------------0-----------------|

INTRO TO THE BRIDGE
G|-------|-------|-------|-------|
D|-2-2---|-------|-2-2---|-------|
A|-----3-|-3-3-5-|-----3-|-3-3-5-| the bass then stops until...
E|-------|-------|-------|-------|

"Come on babe, when the line goes dead..."
G|-----------------------------------------|
D|-----------0-0-0-020-----------0-0-0-020-|
A|-3-3-3-3-3-----------3-3-3-3-3-----------|
E|--------3-------------------3------------|

"Come on baby, don't be shy..."
G|-----------------|
D|-----0-2-----0-2-|
A|---2-------2-----|
E|-0-------0-------|

"Out on the streets..."
G|-----------------------------------------|
D|-----------0-0-0-020-----------0-0-0-020-|
A|-3-3-3-3-3-----------3-3-3-3-3-----------|
E|--------3-------------------3------------|

"Give it up, let it go..."
G|-----------------|
D|-----0-2-----0-2-|
A|---2-------2-----|
E|-0-------0-------|

"I'm digging the dirt..."
G|---------------------------------|
D|-----------2---2---5---5---4---4-|
A|---5---5-0---0---3---3---2---2---|
E|-3---3---------------------------|

"And set my heart out on the line!"
G|-----------------|
D|-----------------|
A|-2-2-2-2-2-2-2-2-|
E|-----------------|

"I'm gonna sell this soul of mine..."
G|--------------------0-2---------|
D|----0-2-----0-2---2---------0-2-|
A|--2-------2-----0---------2-----|
E|-0------0---------------0-------|

"I'm gonna lose my lonely mind for you."
G|-------------------|
D|---5----4------0-2-|
A|-3--3-2--2---2-----| x3
E|-----------0-------|

"I'M GONNA LOSE MY LONELY MIND..."
G|-------------------------------|
D|---5----4----5----4----5----4--|
A|-3--3-2--2-3--3-2--2-3--3-2--2-|
E|-------------------------------|

Intro riff until end

===============================================================================

            
            
Suggest correction
Creating personal tab
Creating personal tab
You can edit any tab online and save it as your Personal.

You can edit, replace or remove any tab part or add personal notes – all changes will be seen only by you.

Personal tabs can be accessed anytime from any device, even offline.
Learn more »
Give kudos to tab author, rate the tab!
1 2 3 4 5
comments
print report bad tab
guest
You may want to rate the tab now too:
select rating
Wanna post a correction for this tab? Suggest correction