Oops, an error
Loading. Please wait.

Mistress Mabel Bass Tab

3,026 views 1 this week
no commentswrite comment
1 2 3 4 5
accurate
x 4
add to favorites
launch autoscroll
font size
0
reset
guitar tuner
Autoscroll
slow
fast
+/-
esc
set tempo
stop
Help us to improve Ultimate-Guitar.com Take our survey!
×
Author
Difficulty
intermediate
Intro (come in with piano)
G|-----------------------------------|
D|-----------------------------------|
A|2-2-2-2-2-2-2-2-2-2-2-2-2-2-2-2/-\-|
E|-----------------------------------|

Pre verse
G|----------------------------------|
D|----------------------------------|
A|2222-22-22-27777-2222-22-22-27777-|
E|----------------------------------|

Verse x1
G|----------------------------------|
D|------11-9-11--------11-9-11-9----|
A|2-6-7----------2-6-7-----------11-|
E|----------------------------------|

G|----------------------------------|
D|------11-9-11---------------------|
A|2-6-7----------2-6-7--7-5-7-5-2-0-|
E|----------------------------------|

G|------------------------------------------|
D|------------------------------------------|
A|2222-22-27-5-7-5-2-0-2222-22-27-5-7-5-2-0-|
E|------------------------------------------|

G|----------------------------------|
D|------11-9-11---------------------|
A|2-6-7----------2-6-7--7-5-7-5-2-0-|
E|----------------------------------|

Pre verse x1

Verse x1 (on the last section after A|2-6-7- just play A|-7>-)

Pre Chorus x1
G|--------------------------------------------|
D|--------------------------------------------|
A|--------------------------------------------|
E|0-0-0-0-00-2-2-2-2-22-0-0-0-0-00-20202-2-22-|

Chorus x1
G|-------------------------------------------------|
D|-------------------------------------------------|
A|2-2----2-2----7-77-77-9-7-5-7-5-55-5-7-7-9-7-5-7-|
E|----2>-----2>------------------------------------|

G|-------------------------------------------------|
D|-------------------------------------------------|
A|2-2----2-2-9>-7-77-77-9-7-5-7-5-55-5-7-7-9-7-5-7-|
E|----2>-------------------------------------------|

After chorus
G|---------|
D|---------|
A|---------|
E|7\----7\-|

Pre verse x1

Verse x1

Pre chorus x1

Chorus x1

Bridge
G|----------------------------------------------|
D|----------------------------------------------|
A|--------3-3-2222-22-22-22222-2222-22-22-22222-|
E|2-2-5-5---------------------------------------|

G|-------------|
D|-------------|
A|---2----2----|
E|2~---2~---2>-|

G|--------------------------------------------|
D|--------------------------------------------|
A|444-555-666-777-88-99-444-555-666-777-88-99-|
E|--------------------------------------------|

G|--------------------------------------------|
D|--------------------------------------------|
A|444-555-666-777-88-99-444-555-666-777-88-99-|
E|--------------------------------------------|

G|-----------------------|
D|-------------------11>-|
A|9-8-9-8-9-8-9-8-9>-----|
E|-----------------------|

Chorus x2

Ending
G|----------------------------------------------|
D|----------------------------------------------|
A|--------3-3-2222-22-22-22222-2222-22-22-22222-|
E|2-2-5-5---------------------------------------|

G|------------------------|
D|------------------------|
A|2222-22-22-22222-2>--2.-|
E|------------------------|

Very fun song to play. i think its pretty much perfect. A few
fills might be a bit off but if you have any corrections or
comments they're welcome. Please rate. Sorry bout the length!
Cheers!
Suggest correction
comments
print report bad tab
guest
You may want to rate the tab now too:
select rating
Wanna post a correction for this tab? Suggest correction