Oops, an error
Loading. Please wait.

My Friend John Bass Tab

version 1
version 1

Whole song

Interactive

2,413 views 1 this week
no commentswrite comment
1 2 3 4 5
x 3
add to favorites
launch autoscroll
font size
0
reset
guitar tuner
Autoscroll
slow
fast
+/-
esc
set tempo
stop
Help us to improve Ultimate-Guitar.com Take our survey!
×
Author
Guitar and drums do their thing first.

Main riff  x1
G|--------------------------------------------------------|
D|--------------------------------------------------------|
A|----5-5-------------------------------------------------|
E|5-5-----3-333-333-333-1-3-333-333-333-1-3-333-333-333-1-|

G|----------------------------------------------------------------|
D|----------------------------------------------------------------|
A|----5-5-----------------------------------------------------5-5-| *
E|5-5-----3-333-333-333-1-3-333-333-333-1-3-333-333-333-1-5-5-----|

Verse  x4
G|--------------------|
D|--------------------|
A|-----3-33-----------|
E|3-33------3-33-1111-|

Main riff (just second lot*)  x1

Verse  x4

Chorus  x1
G|--------------------|
D|--------------------|
A|6-66------5-55-6-66-|  x4
E|-----6-66-----------|

G|---------------|
D|---------------|
A|----------5-55-|
E|3-33-5-55------|

Main riff (just second lot*)  x1  

Verse  x4

Chorus  x1

Break just guitar and drums

Bridge  x2
G|-----------|        G|----------|
D|-----------|        D|555555555-|
A|------66-5-|  x3    A|----------|  x1
E|33-56------|        E|----------|

Chorus  x2

Outro  x1
G|---------------------------------------------------|
D|55555-55555-55555-55555-555555-555555-55543----555-|
A|-------------------------------------------5431----|
E|---------------------------------------------------|

Thats it. Please rate and comment.
Suggest correction
Give kudos to tab author, rate the tab!
1 2 3 4 5
comments
print report bad tab
guest
You may want to rate the tab now too:
select rating
Wanna post a correction for this tab? Suggest correction