Oops, an error
Loading. Please wait.

Ole Black N Blue Eyes Bass Tab

version 1
version 1

Whole song

Interactive

992 views 1 this week
2 commentsread comments
1 2 3 4 5
please rate
add to favorites
launch autoscroll
font size
0
reset
guitar tuner
Autoscroll
slow
fast
+/-
esc
set tempo
stop
Help us to improve Ultimate-Guitar.com Take our survey!
×
Author
Difficulty
novice
Intro, Verse & Verse 1 Ending (eyes)

F||----------------------|----------------------|----------------------|
C||----------------------|----------------------|----------------------|
G||--3----3--------------|--0----0--------------|------------3----3----|
D||------------0----0----|------------0----0----|--1----1--------------|


----------------------|
----------------------|
----------------------|
--1----2----3----3----|



Verse 2 Ending (eyes)

F||----------------------|----------------------|----------------------|
C||----------------------|----------------------|----------------------|
G||--3----3--------------|--0----0--------------|----------------------|
D||------------0----0----|------------0----0----|--1----1----1----1----|

----------------------||
----------------------||
----------------------||
--3----3----3----3----||



Verse 3 Ending (eyes)

F||----------------------|----------------------|----------------------|
C||----------------------|----------------------|----------------------|
G||--3----3--------------|--0----0--------------|----------------------|
D||------------0----0----|------------0----0----|--1----1----1----1----|


----------------------||
----------------------||
----------------------||
--3----3----3----3----||



Chelsea Said She's Got Nowhere to Go etc.

F||----------------------|----------------------|----------------------|
C||----------------------|----------------------|----------------------|
G||--3----3----2----2----|--0----0--------------|----------------------|
D||----------------------|------------0----0----|--1----1----1----1----|

----------------------||
----------------------||
--3----3--------------||
------------3----3----||




Fill In (after Chelsea Said etc.)

F||----------------------------|----------------------------|
C||----------------------------|----------------------------|
G||--3----3-----8----8----8----|--3----3--------------------|
D||----------------------------|-------------3----3----3----|


----------------------------|-------------------------------||
----------------------------|-------------------------------||
--3----3-----8----8----8----|--3----3-----------------------||
----------------------------|-------------3--3--3--3--3--3--||




Young Soul S****** etc.

F||------------------------|------------------------|------------------------|
C||------------------------|------------------------|------------------------|
G||--3----3----8--8--8--8--|--3----3----8--8--8--8--|--3----3----8--8--8--8--|
D||------------------------|------------------------|------------------------|


-------------------------||
-------------------------||
-------------------------||
--3----3--3--3--3--3--3--||




Take me home etc.

F||----------------------|----------------------|----------------------|
C||----------------------|----------------------|----------------------|
G||--3----3--------------|--0----0--------------|----------------------|
D||------------0----0----|------------0----0----|--1----1----1----1----|


----------------------||
----------------------||
----------------------||
--3----3----3----3----||




Chelsea Said She's Got Nowhere to Go etc.

F||----------------------|----------------------|----------------------|
C||----------------------|----------------------|----------------------|
G||--3----3----2----2----|--0----0--------------|----------------------|
D||----------------------|------------0----0----|--1----1----1----1----|

----------------------||
----------------------||
--3----3--------------||
------------3----3----||




Outro/Solo

F||----------------------|----------------------|----------------------|
C||----------------------|----------------------|----------------------|
G||--3----3--------------|--0----0--------------|------------3----3----|
D||------------0----0----|------------0----0----|--1----1--------------|


----------------------|
----------------------|
----------------------|
--1----2----3----3----|
Suggest correction
Give kudos to tab author, rate the tab!
1 2 3 4 5
comments
print report bad tab
2 comments total.
0 reply
megamanx0923 31 wrote on July 12 2007, 05:59 pm

The tuning makes it difficult. All of the other Fratellis songs are in standard tuning, so one would assume that this song would be.

0 reply
oddbod92 391 wrote on March 30 2008, 06:46 am

u can play this song in standard tuning, bt obviously the notes would be different :D

guest
You may want to rate the tab now too:
select rating
Please do not post tabs as comments. Select "correction" instead!