Oops, an error
Loading. Please wait.

Ole Black N Blue Eyes Chords

version 1
version 1

Whole song

Interactive

42,970 views 24 this week
4 commentsread comments
1 2 3 4 5
accurate
x 9
add to favorites
launch autoscroll
font size
0
reset
transpose
0
reset
display chords
guitar tuner
Autoscroll
slow
fast
+/-
esc
set tempo
stop
Help us to improve Ultimate-Guitar.com Take our survey!
×
Difficulty
intermediate
This Tab was submitted onto the bands forum by "Taco Salad" Thanks man great tune from a 
band.Play with soul!!!!

intro:

e|-6--6--5--5--3--3--1--1--6--6--6--6--6--3--1-------|
B|-6--6--6--6--3--3--1--1--8--8--6--6--8--5--1-------|
G|-7--7--7--7--3--3--2--2--8--8--7--7--8--5--2-------|
D|-8--8--7--7--5--5--3--3--8--8--8--8--8--5--3-------|
A|-8--8--5--5--5--5--3--3--6--6--8--8--6--3--3-------|
E|-6--6--5--5--3--3--1--1--6--6--6--6--6--3--1-------|
   A#    Dm    Gm    F     Eb    
   Eb C  F

verse: same chords

          A#           Dm           Gm
well she wants to be a singer in a band

            F               Eb         A#
maybe i'll give the girl a hand and a microphone

 Eb         C      F
looks like she's all alone...

etc

same chords for the chorus, then at the end:


			e|-6--6--6-6-6--6--6--8--8--8---6--6--6-6-6--6-|
			B|-6--6--8-8-8--6--6--10-10-10--6--6--7-7-7--6-|
			G|-7--7--8-8-8--7--7--10-10-10--7--7--8-8-8--7-|
			D|-8--8--8-8-8--8--8--10-10-10--8--8--8-8-8--8-|
			A|-8--8--6-6-6--8--8--8--8--8---8--8--6-6-6--8-|
			E|-6--6--6-6-6--6--6--8--8--8---6--6--6-6-6--6-|
			   A#    Eb     A#    F         A#    
   A#

 when You're dealing with  me


for the 'young soul dagger...' bit:

  A#       Eb      A#           Eb
Young soul dagger, beggin me to bag her,

  A#              Eb      F
filthy heart and swollen hips....

thats about it, hope all is clear i just kind of knocked this together.
Suggest correction
What's this?
You can suggest a correction to this tab. Community and Mods will review your correction and vote to approve or reject it.
comments
print report bad tab
4 comments total. Showing first comments.
0 reply
toomashoobas 11 wrote on March 23 2007, 06:51 pm

good tab but it took me a wile to figure it out....need to make it clearer

0 reply
bezza87 167 wrote on August 5 2007, 07:26 am

lmao

0 reply
q.o.t.s.a.kid 48 wrote on August 7 2007, 11:59 am

brillo!! make it bit chearer! but exelent :)

guest
You may want to rate the tab now too:
select rating
Please do not post tabs as comments. Select "correction" instead!