Oops, an error
Loading. Please wait.

Ole Black N Blue Eyes Tab

version 2
version 2

Solo

Whole song

Interactive

1,038 views 6 this week
1 commentread comment
1 2 3 4 5
please rate
add to favorites
launch autoscroll
font size
0
reset
how to read this tab
guitar tuner
Autoscroll
slow
fast
+/-
esc
set tempo
stop
Help us to improve Ultimate-Guitar.com Take our survey!
×

 I don't see any correct solo tabs for this song so I decided to post my own tab. For 
most part I'm sure its correct. *Note- the entire solo at the end consists of two parts, 
only a little different from the next. They're numbered below.

  1.
e||---10-----|--------|----------------------|-----------------|
B||-----11---|---10---|-11-13-11-13-11-------|-----11-11-------|
G||-------10-|-----10-|---------------10--10-|---12-----10--10-|
D||-12-------|-10-----|-----------------12---|-13---------12---|
A||----------|--------|----------------------|-----------------|
E||----------|--------|----------------------|-----------------|
                 1.
e||--------------|---10-----|--------|----------------------|
B||--------------|-----11---|---10---|-11-13-11-13-11-------|
G||-8-9-10-9-8---|-------10-|-----10-|---------------10--10-|
D||-----------10-|-12-------|-10-----|-----------------12---|
A||--------------|----------|--------|----------------------|
E||--------------|----------|--------|----------------------|


                                   2.
e||-----------------|--------------|--10-----|-------|------------------10--|
B||-----11-11-------|--------------|----11---|--10---|-11-13-11-13-11-13----|
G||---12-----10--10-|-8-9-10-9-8---|------10-|----10-|----------------------|
D||-13---------12---|-----------10-|-12------|-10----|----------------------|
A||-----------------|--------------|---------|-------|----------------------|
E||-----------------|--------------|---------|-------|----------------------|


e||-----------------|---------------|
B||-----11-11-------|---------------|
G||---12-----10--10-|-8-9-10-9-8----|
D||-13---------12---|------------10-|Repeat 1. fade until end
A||-----------------|---------------|
E||-----------------|---------------|
Suggest correction
Give kudos to tab author, rate the tab!
1 2 3 4 5
comments
print report bad tab
1 comment total.
0 reply
ste 673 10 wrote on May 2 2010, 10:36 am

good tab, but just a thought:


e||---------10---------------------------------------------------------------
B||-------11---13-11-10-11-13-11-13-11-13-----------11-11--------------------
G||-----10-------------------------------10--10---12-----10---8--9--10-9-8---
D||--12------------------------------------12---13---------12--------------10
A||--------------------------------------------------------------------------
E||--------------------------------------------------------------------------

e||---------10---------------------------10------------------------------
B||-------11---13-11-10-11-13-11-13-11-13-------11-11--------------------
G||-----10------------------------------------12-----10---8--9--10-9-8---
D||--12-------------------------------------13---------12--------------10
A||----------------------------------------------------------------------
E||----------------------------------------------------------------------


What do u think?

guest
You may want to rate the tab now too:
select rating
Please do not post tabs as comments. Select "correction" instead!