Oops, an error
Loading. Please wait.

Ole Black N Blue Eyes Tab

version 1
version 1

Whole song

Interactive

5,971 views 15 this week
2 commentsread comments
1 2 3 4 5
x 4
add to favorites
launch autoscroll
font size
0
reset
how to read this tab
guitar tuner
Autoscroll
slow
fast
+/-
esc
set tempo
stop
Help us to improve Ultimate-Guitar.com Take our survey!
×
Difficulty
novice
Intro

e|-1-1-1-|
B|-1-1-1-|
G|-3-3-3-|
D|-2-2-2-|
A|-2-2-2-|
E|-1-1-1-|

Verse

e|-6--6--5--5--3--3--5--5----6--6--6--6--6--8---8-------|
B|-6--6--6--6--3--3--6--6----8--8--6--6--8--8---10------|
G|-7--7--7--7--3--3--7--7----8--8--7--7--8--9---10------| (x11)
D|-8--8--7--7--5--5--7--7----8--8--8--8--8--10--10------|
A|-8--8--5--5--5--5--5--5----6--6--8--8--6--10--8-------|
E|-6--6--5--5--3--3--5--5----6--6--6--6--6--8---8-------|

Pre-Chorus

e|-6----5----3----1----6----6----3----1-------|
B|-6----6----3----1----8----6----5----1-------|
G|-7----7----3----2----8----7----5----2-------| (x2)
D|-8----7----5----3----8----8----5----3-------|
A|-8----5----5----3----6----8----3----3-------|
E|-6----5----3----1----6----6----3----1-------|

Bridge

e|-6--6--6-6-6--6--6--8--8--8---6--6--6-6-6--6-|--6------|
B|-6--6--8-8-8--6--6--10-10-10--6--6--7-7-7--6-|--6------|
G|-7--7--8-8-8--7--7--10-10-10--7--7--8-8-8--7-|--7-(x7)-|
D|-8--8--8-8-8--8--8--10-10-10--8--8--8-8-8--8-|--8------|
A|-8--8--6-6-6--8--8--8--8--8---8--8--6-6-6--8-|--8------|
E|-6--6--6-6-6--6--6--8--8--8---6--6--6-6-6--6-|--6------|

Chorus

e|-6--6--6-6---6--6--6-6---6--6--6-6-6--|--6------|
B|-6--6--8-8---6--6--8-8---6--6--8-8-8--|--8------|
G|-7--7--8-8---7--7--8-8---7--7--8-8-8--|--8-(x7)-| (x2)
D|-8--8--8-8---8--8--8-8---8--8--8-8-8--|--8------|
A|-8--8--6-6---8--8--6-6---8--8--6-6-6--|--6------|
E|-6--6--6-6---6--6--6-6---6--6--6-6-6--|--6------|

Bridge

e|-6----5----3----1----6----6----3----1-------|
B|-6----6----3----1----8----6----5----1-------|
G|-7----7----3----2----8----7----5----2-------| (x4)
D|-8----7----5----3----8----8----5----3-------|
A|-8----5----5----3----6----8----3----3-------|
E|-6----5----3----1----6----6----3----1-------|

Outro

e|---6--------5----3---3---3------1------6--6--------6--3--1-1-1-|
B|-----6-------6-----3---3---3--1------7------6---6--8--5--1-1-1-|
G|-------7--------------------------------------7----8--5--3-3-3-| (play to end)
D|---------------------------------------------------8--5--2-2-2-|
A|-6--------5------------------------6---------------6--3--2-2-2-|
E|---------------------------------------------------6--3--1-1-1-|

Suggest correction
comments
print report bad tab
2 comments total.
0 reply
Mafeh 10 Jun 22, 2007 01:12 PM

Highly inaccurate

0 reply
Cachao 70 Oct 27, 2008 11:28 AM

awful, crazy chords and generally bad

guest
You may want to rate the tab now too:
select rating
Wanna post a correction for this tab? Suggest correction