Oops, an error
Loading. Please wait.

Ole Black N Blue Eyes Bass Tab

version 2
version 2

Whole song

Interactive

3,530 views 3 this week
2 commentsread comments
1 2 3 4 5
please rate
add to favorites
launch autoscroll
font size
0
reset
guitar tuner
Autoscroll
slow
fast
+/-
esc
set tempo
stop
Help us to improve Ultimate-Guitar.com Take our survey!
×
Author
Difficulty
novice
“Ole Black ‘N’ Blue Eyes”
The Fratellis
Costello Music

(Third Position)

0:01 – 0:46
G||----------------------|----------------------|----------------------|
D||----------------------|----------------------|----------------------|
A||------------5----5----|------------5----5----|--6----6--------------|
E||--6----6--------------|--3----3--------------|------------6----6----|

----------------------|
-------2----3----3----| X6
--6-------------------|
----------------------|


0:46 – 0:53
G||----------------------|----------------------|----------------------|
D||----------------------|----------------------|----------------------|
A||------------5----5----|------------5----5----|--6----6----6----6----|
E||--6----6--------------|--3----3--------------|----------------------|

----------------------|
--3----3----3----3----| X1
----------------------|
----------------------|


0:53 – 1:08
G||----------------------|----------------------|----------------------|
D||----------------------|----------------------|----------------------|
A||------------5----5----|------------5----5----|--6----6--------------|
E||--6----6--------------|--3----3--------------|------------6----6----|

----------------------|
-------2----3----3----| X2
--6-------------------|
----------------------|


1:08 – 1:22
G||----------------------|----------------------|----------------------|
D||----------------------|----------------------|----------------------|
A||------------5----5----|------------5----5----|--6----6----6----6----|
E||--6----6--------------|--3----3--------------|----------------------|

----------------------|
--3----3----3----3----| X2
----------------------|
----------------------|


1:22 – 1:38
G||----------------------|----------------------|----------------------|
D||----------------------|----------------------|----------------------|
A||----------------------|------------5----5----|--6----6----6----6----|
E||--6----6----5----5----|--3----3--------------|----------------------|

----------------------|
------------3----3----| X2
----------------------|
--6----6--------------|


(First Position)
1:38 – 1:45
G||----------------------------|----------------------------|
D||-------------1----1----1----|----------------------------|
A||--1----1--------------------|--1----1--------------------|
E||----------------------------|-------------1----1----1----|

----------------------------|-------------------------------|
-------------1----1----1----|-------------------------------| X1
--1----1--------------------|--1----1-----------------------|
----------------------------|-------------1--1--1--1--1--1--|


1:45 – 2:00
G||----------------------|--------------------|---------------------|
D||------------1----1----|------------1----1--|------------1----1---|
A||--1----1--------------|--1----1------------|--1----1-------------|
E||----------------------|--------------------|---------------------|

----------------------|
----------------------| X2
----------------------|
--1----1----1----1----|


--REST-- 2:00 – 2:07


(Third Position)
2:07 – 2:17
G||----------------------|----------------------|----------------------|
D||----------------------|----------------------|----------------------|
A||------------5----5----|------------5----5----|--6----6----6----6----|
E||--6----6--------------|--3----3--------------|----------------------|

----------------------|--------------------|
--3----3----3----3----|--------------------| X1
----------------------|--6----6----5----5--|
----------------------|--------------------|


2:17 – 2:31
G||----------------------|----------------------|----------------------|
D||----------------------|----------------------|----------------------|
A||----------------------|------------5----5----|--6----6----6----6----|
E||--6----6----5----5----|--3----3--------------|----------------------|

----------------------|
------------3----3----| X2
----------------------|
--6----6--------------|


2:31 - End
G||----------------------|----------------------|----------------------|
D||----------------------|----------------------|----------------------|
A||------------5----5----|------------5----5----|--6----6--------------|
E||--6----6--------------|--3----3--------------|------------6----6----|

----------------------||
-------2----3----3----|| Repeat and fade
--6-------------------||
----------------------||

Suggest correction
Give kudos to tab author, rate the tab!
1 2 3 4 5
comments
print report bad tab
2 comments total.
0 reply
jordanbeth 51 wrote on January 7 2009, 01:46 pm

Great Tab =D

0 reply
Pale_Pilgrim 703 wrote on December 24 2014, 03:18 pm

A great tab, just written out in a longer-than-necessary way, I find. Easily re-worked for ease of memory, though.

guest
You may want to rate the tab now too:
select rating
Wanna post a correction for this tab? Suggest correction