Oops, an error
Loading. Please wait.

Ole Black N Blue Eyes Tab

version 2
version 2

Whole song

Interactive

2,513 views 3 this week
no commentswrite comment
1 2 3 4 5
accurate
x 3
add to favorites
launch autoscroll
font size
0
reset
how to read this tab
guitar tuner
Tab Pro tools
  • play this tab
  • loop segment
  • change instrument
  • show fretboard
  • metronome
×
Best way to learn
"Ole Black N Blue Eyes"
Autoscroll
slow
fast
+/-
esc
set tempo
stop
The Fratellis - Ole Black N Blue Eyes
Guitar Tab

I’ve left out strumming patterns and a few embellishments.

Guitar is tuned down a whole step.

Intro

d|--3--3--3------------------------------------------|
A|--0--0--0------------------------------------------|
F|--0--0--0------------------------------------------|
C|--0--0--0------------------------------------------|
G|--X--X--X------------------------------------------|
D|--3--3--3------------------------------------------|

Verse

d|--0--0--0--0--1--0--1--2--1------------------------|
A|--1--0--1--0--1--1--1--1--0------------------------|
F|--0--0--2--0--2--0--2--2--0------------------------|
C|--2--2--2--2--3--2--3--0--0------------------------|
G|--3--2--0--2--3--3--3--0--X------------------------|
D|--X--0--X--0--1--X--1--X--3------------------------|

Pre-Chorus
(Eyeeeeees... etc.)

d|--0--0--0--0--0-0-0------1------------------------|
A|--1--3--1--1--1—3-1------0------------------------|
F|--0--1--2--3--2-2-2------0------------------------|
C|--2--2--2--2--3-X-X------0------------------------|
G|--3--2--0--3--3—3-3------X------------------------|
D|--X--0--X--X--X-X-X------3------------------------|

Chorus
(Chelsea says...)

d|--0--0--0--0--1----0-1-1------------------------|
A|--1--1--1--3--1----1-1-0------------------------|
F|--0--0--2--0--2----0-2-0------------------------|
C|--2--0--2--2--3----2-3-0------------------------|
G|--3--2--0--3--3—---3-3-X------------------------|
D|--X--X--X--0--1----X-1-3------------------------|

Bridge 1

d|--X--X--8--8--8---X--X--3----------------------|
A|--5--5--9--9--9---5--5--3----------------------|
F|--5--5--10—10-10--5--5--4----------------------|
C|--5--5--10-10-10--5--5--5----------------------|
G|--3--3--8--8--8---3--3--5----------------------|
D|--X--X--X--X--X---X--X--3----------------------|

Bridge 2
(Begging me to bag her...)

d|--3--3--8--8--3--3--8--8--3--3--8--8--3-------|
A|--5--5--10-10-5--5--10-10-5--5--10-10-3-------|
F|--3--3--8--8--3--3--8--8--3--3--8--8--4-------|
C|--5--5--10-10-5--5--10-10-5--5--10-10-5-------|
G|--3--3--8--8--3--3--8--8--3--3--8--8--5-------|
D|--X--X--X--X--X--X--X--X--X--X--X--X--3-------|

Pre Chorus

Chorus

Outro

d|--0--0--0----1--0--1--2--1------------------------|
A|--1--0--1----1--1--1--1--0------------------------|
F|--0--0--2----2--0--2--2--0------------------------|
C|--2--2--2----3--2--3--0--0------------------------|
G|--3--2--0----3--3--3--0--X------------------------|
D|--X--0--X----1--X--1--X--3------------------------|

Solo
(I play this generally as a bunch of arpeggiated barre chords)

d|-----12-------------------------------------------|
A|--------13-------12-------13-15-13-15-13----------|
F|-----------12-------12-------------------12----12-|
C|--14----------14----------------------------14----|
G|--------------------------------------------------|
D|--------------------------------------------------|

d|--------------------------------------------------|
A|--------13---13-----------------------------------|
F|-----14---------12----12-14-15-16-----------------|
C|--15---------------15----15-16-17-16-15-12-14-----|
G|--------------------------------------------------|
D|--------------------------------------------------|



comments
We did not receive enough feedback on this tab! Please rate:
print report bad tab
1 2 3 4 5
I want to post or [tab]
guest
You may want to rate the tab now too:
select rating
Please do not post tabs as comments. Select "correction" instead!