Oops, an error
Loading. Please wait.

Ole Black N Blue Eyes Chords

version 4
version 4

Whole song

Interactive

25,288 views 27 this week
3 commentsread comments
1 2 3 4 5
excellent!
x 13
add to favorites
launch autoscroll
font size
0
reset
transpose
0
reset
- display chords -
guitar tuner
Tab Pro tools
  • play this tab
  • loop segment
  • change instrument
  • show fretboard
  • metronome
Autoscroll
slow
fast
+/-
esc
set tempo
stop
Contributor
Errors have been updated

the solo is now correct... the first time i did it i was half asleep sorry :)



Chords used

A#   Dm   Gm   Eb   C    F

-6-  -5-  -3-  -6-  -8-  -8-
-6-  -6-  -3-  -8-  -8-  -10-
-8-  -7-  -3-  -8-  -9-  -10-
-8-  -7-  -5-  -8-  -10- -10-
-7-  -5-  -5-  -6-  -10- -8-
-6-  -5-  -3-  -6-  -8-  -8-

A#   Dm   Gm   Dm   Eb   A#     
C F

         A#            Dm            Gm
Well she wants to be a singer in the band
           Dm              Eb         A#
Maybe I'll give the girl a hand and a microphone
Eb         C      F
Looks like she's all alone
A#              Dm                  Gm             Dm
She can bring a friend though she's not my kind of friend
          Eb         A#           Eb  C         F
She keeps staring me out with her ole black 'n' blue eyes


Dm   Gm   Dm   Eb   A#     Eb  F


    A#             Dm              Gm              Dm
And I can take her dancing just to give the girl a chance
          Eb         A#            Eb        C   F
And I was never that good at being nice when I should
  A#                   Dm           Gm                Dm
I guess that she'll forgive right before she tries to kill me
        Eb          A#
Cause I sold her on yesterday's
Eb   C       F
Come take me home

A#  Dm  Gm  Dm  Eb  A# C F
Eye Eye Eye Eye Eyes

    A#             Dm               Gm                Dm
And I can take her waltzing just so she could kick my head in
     Eb         A#              Eb      C  F
Oh I do believe I was drunk and both of my heads had shrunk
A#                   Dm           Gm            Dm
I guess her name was Tina cause before I'd even seen her
      Eb           A#
I was lost in "uh what's your name?"
        Eb  C   F      A#
Oh just get me 'fore I die

Dm  Gm  Dm  Eb   A#
Eye Eye Eye Eyes

Eb   C       F
Oh  take me home

A#  Dm  Gm  Dm  Eb   A#  C F
Eye Eye Eye Eye Eyes


    A#      Dm         Gm    Dm       Eb
And Chelsea said she's got nowhere to go
    A#                Eb      C     F
And if she does she's getting there slow
          A#       Dm           Gm      Dm       Eb
And I can help her out but I've got somewhere to be
    A#             Eb              F            A#
And thats the very thing when your dealing with me

A#  Eb  A#  F
A#  Eb  A#  F

A#         Eb      A#            Eb       Eb             F
Young soul Dagger, Begging me to bag her, filthy heart & swollen hips
                          A#      Eb         A#         Eb
And she said o my dearest i'm not pretty and isn't it a pity
     A#                  Eb     F
That you wont kiss these rotten lips

Oh take me home

A#  Dm  Gm  Dm  Eb
Eye Eye Eye Eye Eyes

Ole black 'n' blue

A#  Dm  Gm  Dm  Eb   A#   F
Eye Eye Eye Eye Eyes


    A#      Dm         Gm    Dm       Eb
And Chelsea said she's got nowhere to go
    A#                Eb      C     F
And if she does she's getting there slow
          A#       Dm           Gm      Dm       Eb
And I can help her out but I've got somewhere to be
    A#             Eb              F            A#
And thats the very thing when your dealing with me

Solo (play till fade)

----10----------------------------------------------|
-------11-------10-----11--13p-11--13p-11-----------|
----------10-------10----------------------10----10-|
-12----------12-------------------------------12----|
----------------------------------------------------|
----------------------------------------------------|

---------------------------------------------------|
-------11--11--------------------------------------|
----12--------10----10-----------------------------|
-13--------------12----13--14--15-14-13-10---------|
---------------------------------------------------|
---------------------------------------------------|

----10----------------------------------------------|
-------11-------10-----11--13p-11--13p-11-----------|
----------10-------10----------------------10----10-|
-12----------12-------------------------------12----|
----------------------------------------------------|
----------------------------------------------------|

---------------------------------------------------|
-------11--11--------------------------------------|
----12--------10----10-----------------------------|
-13--------------12----13--14--15-14-13-10---------|
---------------------------------------------------|
---------------------------------------------------|

----10----------------------------------------10---|
-------11-------10-----11--13p-11--13p-11--13------|
----------10-------10------------------------------|
-12----------12------------------------------------|
---------------------------------------------------|
---------------------------------------------------|

---------------------------------------------------|
-------11--11--------------------------------------|
----12--------10----10-----12--13------------------|
-13--------------12------13--14--15--15------------|
---------------------------------------------------|
---------------------------------------------------|

----10----------------------------------------------|
-------11-------10-----11--13p-11--13p-11-----------|
----------10-------10----------------------10----10-|
-12----------12-------------------------------12----|
----------------------------------------------------|
----------------------------------------------------|

---------------------------------------------------|
-------11--11--------------------------------------|
----12--------10----10-----------------------------|
-13--------------12----13--14--15-14-13-10---------|
---------------------------------------------------|
---------------------------------------------------|
comments
print report bad tab
3 comments total.
0 reply
Pomattic wrote on October 24 2008, 03:44 pm

Like this version the most. Standard tuning. In the right key and can be played to the song. Thanks 5*

0 reply
Threarah3 wrote on September 8 2012, 09:16 pm

I feel like c should be c7

0 reply
veryclevername wrote on August 18 2013, 05:50 am

Threarah3 is right, when I capo it on 3 it sounds much better as a 7

I want to post or [tab]
guest
You may want to rate the tab now too:
select rating
Please do not post tabs as comments. Select "correction" instead!