Oops, an error
Loading. Please wait.

Ole Black N Blue Eyes Chords

version 4
version 4

Whole song

Interactive

29,062 views 54 this week
3 commentsread comments
1 2 3 4 5
x 16
add to favorites
launch autoscroll
font size
0
reset
transpose
0
reset
display chords
guitar tuner
×
Best way to learn
"Ole Black N Blue Eyes"
Autoscroll
slow
fast
+/-
esc
set tempo
stop
Author
[Chords]
A#   Dm   Gm   Eb   C    F

[Intro]
A#   Dm   Gm   Dm   Eb   A#     
C F

[Verse]
         A#            Dm            Gm
Well she wants to be a singer in the band
           Dm              Eb         A#
Maybe I'll give the girl a hand and a microphone
Eb         C      F
Looks like she's all alone
A#              Dm                  Gm             Dm
She can bring a friend though she's not my kind of friend
          Eb         A#           Eb  C         F
She keeps staring me out with her ole black 'n' blue eyes

[Instrumental]
Dm   Gm   Dm   Eb   A#     Eb  F

[Verse]
    A#             Dm              Gm              Dm
And I can take her dancing just to give the girl a chance
          Eb         A#            Eb        C   F
And I was never that good at being nice when I should
  A#                   Dm           Gm                Dm
I guess that she'll forgive right before she tries to kill me
        Eb          A#
Cause I sold her on yesterday's
Eb   C       F
Come take me home
A#  Dm  Gm  Dm  Eb  A# C F
Eye Eye Eye Eye Eyes

[Verse]
    A#             Dm               Gm                Dm
And I can take her waltzing just so she could kick my head in
     Eb         A#              Eb      C  F
Oh I do believe I was drunk and both of my heads had shrunk
A#                   Dm           Gm            Dm
I guess her name was Tina cause before I'd even seen her
      Eb           A#
I was lost in "uh what's your name?"
        Eb  C   F      A#
Oh just get me 'fore I die
Dm  Gm  Dm  Eb   A#
Eye Eye Eye Eyes
Eb   C       F
Oh  take me home
A#  Dm  Gm  Dm  Eb   A#  C F
Eye Eye Eye Eye Eyes

[Verse]
    A#      Dm         Gm    Dm       Eb
And Chelsea said she's got nowhere to go
    A#                Eb      C     F
And if she does she's getting there slow
          A#       Dm           Gm      Dm       Eb
And I can help her out but I've got somewhere to be
    A#             Eb              F            A#
And thats the very thing when your dealing with me

[Instrumental]
A#  Eb  A#  F
A#  Eb  A#  F

[Verse]
A#         Eb      A#            Eb       Eb             F
Young soul Dagger, Begging me to bag her, filthy heart & swollen hips
                          A#      Eb         A#         Eb
And she said o my dearest i'm not pretty and isn't it a pity
     A#                  Eb     F
That you wont kiss these rotten lips
Oh take me home
A#  Dm  Gm  Dm  Eb
Eye Eye Eye Eye Eyes
Ole black 'n' blue
A#  Dm  Gm  Dm  Eb   A#   F
Eye Eye Eye Eye Eyes

[Verse]
    A#      Dm         Gm    Dm       Eb
And Chelsea said she's got nowhere to go
    A#                Eb      C     F
And if she does she's getting there slow
          A#       Dm           Gm      Dm       Eb
And I can help her out but I've got somewhere to be
    A#             Eb              F            A#
And thats the very thing when your dealing with me

[Solo] 
(play till fade)
e|----10----------------------------------------------|
B|-------11-------10-----11--13p-11--13p-11-----------|
G|----------10-------10----------------------10----10-|
D|-12----------12-------------------------------12----|
A|----------------------------------------------------|
E|----------------------------------------------------|

e|---------------------------------------------------|
B|-------11--11--------------------------------------|
G|----12--------10----10-----------------------------|
D|-13--------------12----13--14--15-14-13-10---------|
A|---------------------------------------------------|
E|---------------------------------------------------|

e|----10----------------------------------------------|
B|-------11-------10-----11--13p-11--13p-11-----------|
G|----------10-------10----------------------10----10-|
D|-12----------12-------------------------------12----|
A|----------------------------------------------------|
E|----------------------------------------------------|

e|---------------------------------------------------|
B|-------11--11--------------------------------------|
G|----12--------10----10-----------------------------|
D|-13--------------12----13--14--15-14-13-10---------|
A|---------------------------------------------------|
E|---------------------------------------------------|

e|----10----------------------------------------10---|
B|-------11-------10-----11--13p-11--13p-11--13------|
G|----------10-------10------------------------------|
D|-12----------12------------------------------------|
A|---------------------------------------------------|
E|---------------------------------------------------|

e|---------------------------------------------------|
B|-------11--11--------------------------------------|
G|----12--------10----10-----12--13------------------|
D|-13--------------12------13--14--15--15------------|
A|---------------------------------------------------|
E|---------------------------------------------------|

e|----10----------------------------------------------|
B|-------11-------10-----11--13p-11--13p-11-----------|
G|----------10-------10----------------------10----10-|
D|-12----------12-------------------------------12----|
A|----------------------------------------------------|
E|----------------------------------------------------|

e|---------------------------------------------------|
B|-------11--11--------------------------------------|
G|----12--------10----10-----------------------------|
D|-13--------------12----13--14--15-14-13-10---------|
A|---------------------------------------------------|
E|---------------------------------------------------|
Suggest correction
comments
print report bad tab
3 comments total.
0 reply
Pomattic 42 Oct 24, 2008 11:44 AM

Like this version the most. Standard tuning. In the right key and can be played to the song. Thanks 5*

0 reply
Threarah3 10 Sep 08, 2012 05:16 PM

I feel like c should be c7

0 reply
veryclevername 10 Aug 18, 2013 01:50 AM

Threarah3 is right, when I capo it on 3 it sounds much better as a 7

guest
You may want to rate the tab now too:
select rating
Wanna post a correction for this tab? Suggest correction