Oops, an error
Loading. Please wait.

Shameless Bass Tab

1,533 views 1 this week
no commentswrite comment
1 2 3 4 5
excellent!
x 4
add to favorites
launch autoscroll
font size
0
reset
guitar tuner
Tab Pro tools
  • play this tab
  • loop segment
  • change instrument
  • show fretboard
  • metronome
Autoscroll
slow
fast
+/-
esc
set tempo
stop
Contributor
Difficulty
novice
Intro  x4
G|-------------|
D|-------------|
A|-------------|
E|0-0---7~-----|

Verse Part 1
G|--------------------------------|
D|--------------------------------|
A|--------------------------------|  x3
E|0-0-000-7-7-777-0-45654-0-45654-|

Part 2
G|------------------------------------------------------|
D|------------------------------------------------------|
A|------------------------------------------------------|
E|0-0-000-7-7-777-0-45654-0-456-7-5~--7-5~--6-7~--6-7~--|

Chorus
G|-----------------------------------------------------------|
D|-----------------------------------------------------------|
A|---------------------------------------------456-----------|
E|0000-44-88-99-77-55-66-0-0-000-7-7-777-0-456-----0-45-7777-|

G|---------------------------------------|
D|---------------------------------------|
A|---------------------------------------|
E|0000-44-88-99-77-55-66-0-0-000-7-7-777-|

Post Chorus  x2
G|---------------------|
D|---------------7-5---|
A|------456----------7-|
E|0-456-----0-45-------|

Verse Part 1 x1

Verse Part 2 x1

Chorus x1

Post Chorus  x4

Interlude  x1
G|----------------------------------------------------|
D|----------------------------------------------------|
A|--------5-5-4-0-0-7~-7~-5-7-5-------------5-5-4-0-0-|
E|0-0-3-3-----------------------7-5-0-0-3-3-----------|

G|---------------------|
D|---------------------|
A|7~-5-7~-5-7-7-7-7-7>-|
E|---------------------|

Last Chorus  x4 (last time let last notes ring out)
G|--------------------------------------------------------|
D|--------------------------------------------------------|
A|--------------------------------------------------------|
E|0000-44-88-99-77-55-66-0-0-000-7-7-777-0000-77-55-44-22-|

END

Please rate and comment if any problems or questions.
comments
print report bad tab
I want to post or [tab]
guest
You may want to rate the tab now too:
select rating
Please do not post tabs as comments. Select "correction" instead!