Oops, an error
Loading. Please wait.

Tell Me A Lie Bass Tab

2,413 views 1 this week
2 commentsread comments
1 2 3 4 5
accurate
x 4
add to favorites
launch autoscroll
font size
0
reset
guitar tuner
Autoscroll
slow
fast
+/-
esc
set tempo
stop
Help us to improve Ultimate-Guitar.com Take our survey!
×
Author
Difficulty
novice
Intro x4
G|------|
D|------|
A|------|
E|0-3-5-|

Main Riff  x1
G|---------------------------------------------------|
D|---------------------------------------------------|
A|--------------77---------------77---------------77-|
E|0-3-5-535-535----0-3-5-535-535----0-3-5-535-535----|

G|---------------------|
D|---------------------|
A|--------------77-----|
E|0-3-5-535-535----0-3-|

Pre verse  x1
G|------------------------------------|
D|------------------------------------|
A|--------------12-12-1212-12-12-1212-|
E|5-5-55-5-5-55-----------------------|

G|-----------------------------------------|
D|-----------------------------------------|
A|--------------12-10----10-12-10----10-12-|
E|5-5-55-5-5-5/-------12----------12-------|


Verse  x1
G|------------------------------------------------------|
D|------------------------------------------------------|
A|--------5-5-5-5---------12-10----10-12-12-10----10-12-|
E|5-5-5-5---------5-5-5-5-------12-------------12-------|

G|-------------------------------------|
D|-------------------------------------|
A|--------5-5-5-5----------------------|
E|5-5-5-5---------5-5-5-5-12-12-10-8-5-|

Chorus x1
G|----------------------------------------|
D|----------------------------------------|
A|----3-3-5-3-5-7-7-5-7-7-5-5-3-----------|   x3
E|5-5---------------------------5-3-5-555-|

G|--------------------------------|
D|--------------------------------|
A|----3-3-5-3-5-7-7-5-7-7-5-5-3---|  x1
E|5-5---------------------------5-|

Main riff x1

Verse x1

Chorus x1

Intro x4

Solo/Bridge
G|-----------------------------------------|
D|-----------------------------------------|
A|--------5-3-5-7-5-3----------5-3-5-7-5-3-|
E|5-5-3-3--------------5-5-3-3-------------|

G|---------------------------------------|
D|---------------------------------------|
A|----------5--7-5-3------------5--7-5-3-|
E|5-5-3-3-3-----------5-5-3-3-3----------|

G|-----------------------------------------------|
D|-----------------------------------------------|
A|------------5-5-5-5-5-5-------------5-5-555555-|
E|5-5-5-3-3-3-------------5-5-5-3-3-3------------|

Chorus  x1

End with Main Riff however many times.

Please rate and comment or correct if somethings wrong.
Thanks!
Suggest correction
What's this?
You can suggest a correction to this tab. Community and Mods will review your correction and vote to approve or reject it.
comments
print report bad tab
2 comments total.
0 reply
gunsnrosesrock: 74 wrote on February 4 2009, 03:57 pm

it's an okay tab.

0 reply
EnergyFix 68 wrote on July 1 2009, 09:01 pm

For the main riff, after the 5 3 5 5 3 5 when you hit the E (7th fret) on the A string, try doing a slide down the neck after the second strike. Whats what the rhythm guitar does when the chord is played.

guest
You may want to rate the tab now too:
select rating
Please do not post tabs as comments. Select "correction" instead!