Oops, an error
Loading. Please wait.

Tell Me A Lie Chords

version 1
version 1

Whole song

3,223 views 1 this week
3 commentsread comments
1 2 3 4 5
1 last vote to show rating
add to favorites
launch autoscroll
font size
0
reset
transpose
0
reset
simplify chords
display chords
guitar tuner
Autoscroll
slow
fast
+/-
esc
set tempo
stop
Help us to improve Ultimate-Guitar.com Take our survey!
×
Author
Difficulty
novice
The Fratellis - Tell Me a Lie
From the album "Here We Stand" (2008)

This is my first tab, so please feel free to submit any corrections you may have in 
to better this tab for the community. I'm pretty sure this is 85% correct, but feedback 
be great. Thanks and enjoy!

Standard Tuning
E A D G B E

Intro
E	G	Am

Riff
---------------------------------------------|
--3s--5--0--1--0-----------------------------|
-----------------------2---------------------|
---------------------------------------------|
---------------------------------------------|
---------------------------------------------|

Verse
Am	C	Dsus2		E

Chorus
Am	     C	        Dsus2	          E
E	Dsus2		C	G      Am

Post-Chorus
E	G	Am
Suggest correction
Give kudos to tab author, rate the tab!
1 2 3 4 5
comments
print report bad tab
3 comments total.
0 reply
rockywardie 132 Jun 06, 2008 05:55 PM

I've posted a much more in-depth version here - http://www.savefile.com/files/1590735
Just to make this tab clearer :)

Not so sure on the solo part, but the intro is accurate, from looking at live videos

0 reply
chrisdazzo 180 Jun 08, 2008 07:28 PM

Oh wow! Post that if you'd like!

0 reply
MasterKeks 52 Jun 10, 2008 09:36 AM

Intro is wrong, I think. It sounds better with powerchords (E G A). The riff doesn't sound accurate to me, either. I think, Jon plays it in the seventh fret like this:

e---------------------------------------------|
H---------------------------------------------|
G--7--5--7--5---------------------------------|
D---------------7~----------------------------|
A---------------------------------------------|
E---------------------------------------------|

I prefer rockywardies tab although the "solo" is not correct. ;)

guest
You may want to rate the tab now too:
select rating
Wanna post a correction for this tab? Suggest correction