Oops, an error
Loading. Please wait.

Tell Me A Lie Tab

version 1
version 1

Whole song

9,356 views 1 this week
2 commentsread comments
1 2 3 4 5
x 10
add to favorites
launch autoscroll
font size
0
reset
how to read this tab
guitar tuner
Autoscroll
slow
fast
+/-
esc
set tempo
stop
Help us to improve Ultimate-Guitar.com Take our survey!
×
Author
-------------------------------------------------------------------------------
                             Tell Me A Lie - The Fratellis
-------------------------------------------------------------------------------
Tabbed by: cedxd
Email: ced_hoogenboom@hotmail.com

Tuning:Standard


intro:

e|----------------------------------------------------------------|
B|----------------------------------------------------------------|
G|--------------------------------------------------7b-5-7h-5-----|2x 
A|--2--5--7--------------2--5--7------------------------------7---|
D|--2--5--7--------------2--5--7----------------------------------|
E|--0--3--5--------------0--3--5----------------------------------|
            Aahaahaha...

e|---------------------------------|
B|---------------------------------|
G|------------------------------7b-|4x
A|--2--5--7---7-7-7--7-7-7---------|
D|--2--5--7---7-7-7--7-7-7---------|
E|--0--3--5---5-5-5--5-5-5---------|

e|---------------------------------|
B|-----------------/14-14----------|
G|------------------------12-12----|
A|--2--5--7---------------------14-|
D|--2--5--7------------------------|
E|--0--3--5------------------------|

verse 1:

guitar 1:
e|-------------------------------------|
B|-------------------------------------|
G|-----------7-7-7-7-----------9-9-9-9-|2x
D|--7-7-7-7--7-7-7-7--7-7-7-7--9-9-9-9-|
A|--7-7-7-7--5-5-5-5--7-7-7-7--7-7-7-7-|
E|--5-5-5-5-----------5-5-5-5----------|

guitar 2:
e|-------------------------------------------------------------------|
B|-------------------15-13-15-13-15-------------------17-15-17-15-17-|
G|--14-12-14-12-14-------------------14-12-14-12-14------------------|2x
A|-------------------------------------------------------------------|
D|-------------------------------------------------------------------|
E|-------------------------------------------------------------------|

chorus:

e|------------------------------------------------------------|
B|------------------------------------------------------------|
G|----------5--5-5--7--7-7--9--9-9--9--9-9--7--7-7--5-5-------|3x
A|--7--7-7--5--5-5--7--7-7--9--9-9--9--9-9--7--7-7--5-5--5--7-|
D|--7--7-7--3--3-3--5--5-5--7--7-7--7--7-7--5--5-5--3-3--5--7-|
E|--5--5-5-----------------------------------------------3--5-|
    And the boy cried...


e|---------------------------------------------------------------|
B|---------------------------------------------------------------|
G|----------5--5-5--7--7-7--9--9-9--9--9-9--7--7-7--5-5----------|3x
A|--7--7-7--5--5-5--7--7-7--9--9-9--9--9-9--7--7-7--5-5--2--5--7-|
D|--7--7-7--3--3-3--5--5-5--7--7-7--7--7-7--5--5-5--3-3--2--5--7-|
E|--5--5-5-----------------------------------------------0--3--5-|
                                    I could be a begger...
e|---------------------------------|
B|---------------------------------|
G|---------------------------------|4x
A|--2--5--7---7-7-7--7-7-7----7b---|
D|--2--5--7---7-7-7--7-7-7---------|
E|--0--3--5---5-5-5--5-5-5---------|

e|--------|
B|--------|
G|--------|
A|--2--5--|
D|--2--5--|
E|--0--3--|

verse 2:

guitar 1:
e|-------------------------------------|
B|-------------------------------------|
G|-----------7-7-7-7-----------9-9-9-9-|2x
D|--7-7-7-7--7-7-7-7--7-7-7-7--9-9-9-9-|
A|--7-7-7-7--5-5-5-5--7-7-7-7--7-7-7-7-|
E|--5-5-5-5-----------5-5-5-5----------|

guitar 2:
e|-------------------------------------------------------------------|
B|-------------------15-13-15-13-15-------------------17-15-17-15-17-|
G|--14-12-14-12-14-------------------14-12-14-12-14------------------|2x
A|-------------------------------------------------------------------|
D|-------------------------------------------------------------------|
E|-------------------------------------------------------------------|

chorus:

e|------------------------------------------------------------|
B|------------------------------------------------------------|
G|----------5--5-5--7--7-7--9--9-9--9--9-9--7--7-7--5-5-------|3x
A|--7--7-7--5--5-5--7--7-7--9--9-9--9--9-9--7--7-7--5-5--5--7-|
D|--7--7-7--3--3-3--5--5-5--7--7-7--7--7-7--5--5-5--3-3--5--7-|
E|--5--5-5-----------------------------------------------3--5-|
    And the boy cried...

B|---------------------------------------------------------------|
G|----------5--5-5--7--7-7--9--9-9--9--9-9--7--7-7--5-5----------|3x
A|--7--7-7--5--5-5--7--7-7--9--9-9--9--9-9--7--7-7--5-5--2--5--7-|
D|--7--7-7--3--3-3--5--5-5--7--7-7--7--7-7--5--5-5--3-3--2--5--7-|
E|--5--5-5-----------------------------------------------0--3--5-|
                                    I could be a begger...
e|---------------------------------|
B|---------------------------------|
G|---------------------------------|4x
A|--2--5--7---7-7-7--7-7-7----7b---|
D|--2--5--7---7-7-7--7-7-7---------|
E|--0--3--5---5-5-5--5-5-5---------|

e|--------|
B|--------|
G|--------|
A|--2--5--|
D|--2--5--|
E|--0--3--|

solo:
guitar 1:
e|--------------------------------------------------------------------------|
B|--------------------------------------------------------------------------|
G|--------------------------------------------------------------------------|
A|--2--5--7-------------2--5--7----------------2--5--7----------------------|
D|--2--5--7-------------2--5--7----------------2--5--7----------------------|
E|--0--3--5-------------0--3--5----------------0--3--5----------------------|

guitar 2:
e|------------------------------------------------------7b-8b-9b-10b-11b-12b|
B|---------------------------------7b-7b-7b-7b------------------------------|
G|-----------7b-7b-7b-7b----------------------------------------------------|
A|--------------------------------------------------------------------------|
D|--------------------------------------------------------------------------|
E|--------------------------------------------------------------------------|



guitar 1:
e|----------------------------|
B|----------------------------|
G|----------------------------|
A|--2--5--7-------------------|
D|--2--5--7-------------------|
E|--0--3--5-------------------|

guitar 2:
e|------------17b-17b-17b-17b-|
B|----------------------------|
G|----------------------------|
A|----------------------------|
D|----------------------------|
E|----------------------------|

guitar 1:
e|-----------------------------|
B|-----------------------------|
G|--------------------7--7-7---|6x
A|--7--7-7---5--5-5---7--7-7---|
D|--7--7-7---5--5-5---5--5-5---|
E|--5--5-5---3--3-3------------|

then, after the 4th time guitar 2 playes:
e|--------------------9b-9b-7b-------------------------11b-11b-11b-11b------|
B|---------9b-7b-7b------------9b-7---------9b-7b-7b------------------------|
G|---7b-7b----------7-----------------7b-7b----------7----------------------|
A|--------------------------------------------------------------------------|
D|--------------------------------------------------------------------------|
E|--------------------------------------------------------------------------|

chorus:

e|------------------------------------------------------------|
B|------------------------------------------------------------|
G|----------5--5-5--7--7-7--9--9-9--9--9-9--7--7-7--5-5-------|3x
A|--7--7-7--5--5-5--7--7-7--9--9-9--9--9-9--7--7-7--5-5--5--7-|
D|--7--7-7--3--3-3--5--5-5--7--7-7--7--7-7--5--5-5--3-3--5--7-|
E|--5--5-5-----------------------------------------------3--5-|
    And the boy cried...

e|---------------------------------------------------------------|
B|---------------------------------------------------------------|
G|----------5--5-5--7--7-7--9--9-9--9--9-9--7--7-7--5-5----------|
A|--7--7-7--5--5-5--7--7-7--9--9-9--9--9-9--7--7-7--5-5--2--5--7-|
D|--7--7-7--3--3-3--5--5-5--7--7-7--7--7-7--5--5-5--3-3--2--5--7-|
E|--5--5-5-----------------------------------------------0--3--5-|
                                    I could be a begger...
e|---------------------------------|
B|---------------------------------|
G|----------------------------7b---|4x
A|--2--5--7---7-7-7--7-7-7---------|
D|--2--5--7---7-7-7--7-7-7---------|
E|--0--3--5---5-5-5--5-5-5---------|

e|----------|
B|----------|
G|----------|
A|--2--5--7-|
D|--2--5--7-|
E|--0--3--5-|

This was my first tab, for comment please mail me.

| /  slide up
| \  slide down
| h  hammer-on
| b  bend
| p  pull-off
| ~  vibrato
| +  harmonic
| x  Mute note
===============================================================================
Suggest correction
comments
print report bad tab
2 comments total.
-1 reply
gunsnrosesrock: 20 Jan 26, 2009 03:40 PM

well done! this tab is right and is just as perfect as the fratellis!
good work man!

-2 reply
MasterExploder0 30 May 24, 2009 06:46 AM

Awesome tab man! Jon always used barre chords on Costello Music but idk if he changed that for this album. Oh well, power chords are hardly any different from their barre counter-parts anyway.

guest
You may want to rate the tab now too:
select rating
Wanna post a correction for this tab? Suggest correction