Oops, an error
Loading. Please wait.

Vince The Lovable Stoner Bass Tab

version 1
version 1

Whole song

3,320 views 1 this week
1 commentread comment
1 2 3 4 5
please rate
add to favorites
launch autoscroll
font size
0
reset
guitar tuner
Tab Pro tools
  • play this tab
  • loop segment
  • change instrument
  • show fretboard
  • metronome
×
Best way to learn
"Vince The Lovable Stoner"
Autoscroll
slow
fast
+/-
esc
set tempo
stop
Contributor
KEY
\ = slide down
h = hammer on
p = pull off


VERSE ONE
|--------------------------|----------------------------|
|-------5-5---------5-0-2-3|5-5---5-5---------------3---|
|----5-5---5-3---5-5-------|---5-----5-3----5-5--3h5-5p3|
|\3-3---------3-3----------|-------------3-3---3--------|


VERSE TWO
|--------------------------|----------------------------|
|-------5-5---------5-0-2-3|5-5---5-5-------------------|
|----5-5---5-3---5-5-------|---5-----5-3----5-5----0-2--|
|-3-3---------3-3----------|-------------3-3---3--3-----|

|--------------------------|----------------------------|
|----2-23-35-55-53-32-2----|------5-5-------------------|
|-3-3------------------3-1-|---5-5---5-5-3---5-5--3-----|
|--------------------------|3-3-----------3-3----3-3----|


PRE-CHORUS
|---------------------------------|---------5-3---------------------|
|---5-5---5-5---------------------|---5-5---------------------------|
|5-5---5-5----3-333-3-333-3-333---|5-5---5-5---3-333-3-333-3-333-5-3|
|------------------------------023|---------------------------------|

|-----------------------------------------|
|-----------------------------------------|
|-1-111-1-111-1-111-3-1-0-000-0-000--5--3-|
|-----------------------------------------|


CHORUS
|-------------------------------|-------------------------------|
|-------------------------------|-------------------------------|
|-----------2-3--3-3-3-3-2-0----|-----------2-3--3-3-3-3-2-0----|
|-3-3-3-3-3------------------3-1|-3-3-3-3-3------------------3-1|


VERSE ONE
|--------------------------|----------------------------|
|-------5-5---------5-0-2-3|5-5---5-5---------------3---|
|----5-5---5-3---5-5-------|---5-----5-3----5-5--3h5-5p3|
|\3-3---------3-3----------|-------------3-3---3--------|


VERSE TWO
|--------------------------|----------------------------|
|-------5-5---------5-0-2-3|5-5---5-5-------------------|
|----5-5---5-3---5-5-------|---5-----5-3----5-5----0-2--|
|-3-3---------3-3----------|-------------3-3---3--3-----|

|--------------------------|----------------------------|
|----2-23-35-55-53-32-2----|------5-5-------------------|
|-3-3------------------3-1-|---5-5---5-5-3---5-5--3-----|
|--------------------------|3-3-----------3-3----3-3----|


PRE-CHORUS
|---------------------------------|---------5-3---------------------|
|---5-5---5-5---------------------|---5-5---------------------------|
|5-5---5-5----3-333-3-333-3-333---|5-5---5-5---3-333-3-333-3-333-5-3|
|------------------------------023|---------------------------------|

|-----------------------------------------|
|-----------------------------------------|
|-1-111-1-111-1-111-3-1-0-000-0-000--5--3-|
|-----------------------------------------|


CHORUS
|-------------------------------|-------------------------------|
|-------------------------------|-------------------------------|
|-----------2-3--3-3-3-3-2-0----|-----------2-3--3-3-3-3-2-0----|
|-3-3-3-3-3------------------3-1|-3-3-3-3-3------------------3-1|


POST-CHORUS
|------------------------------|-----------------------------|----------|
|-----5---------5--------------|----5---------5--------------|----------|
|---5---5-3---5---5-3--3-1--1-0|--5---5-3---5---5-3--3-1--1-0|----5-5-3-|
|-3---------3------------------|3---------3------------------|-3-3---3-3|


PRE-CHORUS
|---------------------------------|---------5-3---------------------|
|---5-5---5-5---------------------|---5-5---------------------------|
|5-5---5-5----3-333-3-333-3-333---|5-5---5-5---3-333-3-333-3-333-5-3|
|------------------------------023|---------------------------------|

|-----------------------------------------|
|-----------------------------------------|
|-1-111-1-111-1-111-3-1-0-000-0-000--5--3-|
|-----------------------------------------|


CHORUS
|-------------------------------|-------------------------------|
|-------------------------------|-------------------------------|
|-----------2-3--3-3-3-3-2-0----|-----------2-3--3-3-3-3-2-0----|
|-3-3-3-3-3------------------3-1|-3-3-3-3-3------------------3-1|


CHORUS (END)
|-------------------------------|------------------------------|-------------|
|-------------------------------|------------------------------|-------------|
|-----------2-3--3-3-3-3-2-0----|-----------2-3--3-3-3-3-2-0---|-2-0----2-0--|
|-3-3-3-3-3------------------3-1|-3-3-3-3-3------------------3-|-----3------3|



By my ears this is perfect, enjoy...
comments
We did not receive enough feedback on this tab! Please rate:
print report bad tab
1 2 3 4 5
1 comment total.
0 reply
jordanbeth wrote on October 19 2009, 01:16 pm

awesome tab perfect to my eyes XD

I want to post or [tab]
guest
You may want to rate the tab now too:
select rating
Please do not post tabs as comments. Select "correction" instead!