Oops, an error
Loading. Please wait.

Vince The Lovable Stoner Bass Tab

version 2
version 2

Whole song

1,439 views 1 this week
no commentswrite comment
1 2 3 4 5
3 more votes to show rating
add to favorites
launch autoscroll
font size
0
reset
guitar tuner
Autoscroll
slow
fast
+/-
esc
set tempo
stop
Help us to improve Ultimate-Guitar.com Take our survey!
×
Difficulty
intermediate
---------------------------------------------------------------------------
                 VINCE THE LOVEABLE STONER - The Fratellis
---------------------------------------------------------------------------

Tabbed By : Mei
e-mail: emoanimalcookies@aol.com

Tuning: Standard

Verses

G|-----------0-0-------------0-0------|0-0-----0-0------------------------|
D|-------0-0-----0-------0-0-----0-2-4|----0-0-----0-------0-0-----0-2-0--|
A|-----------------2------------------|--------------2-----------2-------2|
E|10\3-3-------------3-3--------------|----------------3-3-----3----------|

G|--------0-0-------------0-0------|0-0-----0-0-----------------------|
D|----0-0-----0-------0-0-----0-2-4|----0-0-----0-------0-0-----------|
A|--------------2------------------|--------------2---------------0-2-|
E|3-3-------------3-3--------------|----------------3-3-----3-3-3-----|

G|---------------------------------|--------0-0-----------------------|
D|----2-2-3-3-4-4-5-5-3-3-2-2-0----|----0-0-----0---------------------|
A|3-3---------------------------2--|--------------2-----5-5-----5-----|
E|---------------------------------|3-3-------------3-3-----3-3---3---|


Chorus
***The ending chorus has a few repeated bars, but no changed notes***

G|----0-0-----0-0---------------------|----0-0-----0-0--------------------|
D|0-0-----0-0-------------------------|0-0-----0-0------------------------|
A|----------------3-3-33-3-33-3-33----|----------------3-3-33-3-33-3-3-4-5|
E|---------------------------------0-2|-----------------------------------|

G|------------------------------------|
D|------------------------------------|
A|1-1-1-1-1-1-1-1-1-2-3-0-00-0-00-5-3-|
E|------------------------------------|

G|----------------------------|----------------------------|
D|----------------------------|----------------------------|
A|----------2-3--3-3-3-3-1-0--|----------2-3--3-3-3-3-1-0--|
E|3-3-3-3-3------------------3|3-3-3-3-3------------------3|

Bridge (after 2nd chorus)

G|----0-0-----------0-0----------------------|
D|--0-----0-------0-----0--------------------|
A|----------2-0-----------2-0h3-3-1-1-1-1----|
E|3-------------3-------------------------4-4|

G|----0-0-----------0-0------------------------------------------|
D|--0-----0-------0-----0----------------------------------------|
A|----------2-0-----------2-0h3-3-1-1-1-1---------------------2--|
E|3-------------3-------------------------4-4-4-3-3-3-3-3-3-3---3|
Suggest correction
Give kudos to tab author, rate the tab!
1 2 3 4 5
comments
print report bad tab
guest
You may want to rate the tab now too:
select rating
Wanna post a correction for this tab? Suggest correction