Oops, an error
Loading. Please wait.
We have Chord Pro version of Whistle For The Choir.
It's the closest thing you can get to the original song and it has interactive parts. Check out the tab »
×
151,445 views 87 this week
18 commentsread comments
1 2 3 4 5
x 49
add to favorites
launch autoscroll
font size
0
reset
how to read this tab
guitar tuner
Autoscroll
slow
fast
+/-
esc
set tempo
stop
Author
-------------------------------------------------------------------------------
                            Whistle For The Choir - The Fratellis
-------------------------------------------------------------------------------
Tabbed by: Aron S
Email: goodsum@hotmail.com

Tuning: Standard

Seeing as there isn't actually a perfect tab, i'll put my own up, adding to my Fratellis tabs.


The strumming goes like this:

    E
e|-----0-----0-----0-----0-0--|
B|-----0-----0-----0-----0-0--|
G|--1--1--1--1--1--1--1--1-1--|
D|--2--2--2--2--2--2--2--2-2--|
A|--2-----2-----2-----2----2--|
E|--0-----0-----0-----0----0--|



[Intro/Verse:]

    E   G#m   Gm  F#m   B
e|--0----4----3----2----7--|
B|--0----4----3----2----7--|
G|--1----4----3----2----8--|
D|--2----6----5----4----9--|
A|--2----6----5----4----9--|
E|--0----4----3----2----7--|


     E
Well it's a big big city and it's always the same 
          G#m                            G#m Gm F#m
Can never be too pretty tell me you your name 
                                          B
Is it out of line if I were so bold to say "Would you be mine"?



[Chorus]

    E    G#m   Gm   F#m    B
e|--7----11----10-----9----7---|
B|--9----12----11----10----7---|
G|--9----13----12----11----8---|
D|--9----13----12----11----9---|
A|--7----11----10-----9----9---|
E|-------------------------7---|

             E                             G#m
So if you're lonely why'd you say your not lonely 
          G#m Gm F#m
Oh your a silly girl, I know I hurt it so 
B
It's just like you to come 
           E                         G#m
And go you know me no you don't even know me 
        G#m Gm F#m
Your so sweet to try, oh my, you caught my eye 
B
A girl like you's just irresistible 



[Interlude]

(This follows the same pattern as the verse and chorus)


    D    F#m   Fm    Em   A    B
e|--5-----9-----8----7----5----7--|
B|--7----10-----9----8----5----7--|
G|--7----11----10----9----6----8--|
D|--7----11----10----9----7----9--|
A|--5-----9-----8----7----7----9--|
E|------------------------5----7--|

    E    G#m   Gm   F#m    B
e|--7----11----10-----9----7---|
B|--9----12----11----10----7---|
G|--9----13----12----11----8---|
D|--9----13----12----11----9---|
A|--7----11----10-----9----9---|
E|-------------------------7---|


[Interlude Solo:]

e|--------------16-14-12-14-------------14-12-11-10--9--9--9--9--|
B|--17-17-17-17-------------16-16-16-16--------------------------|
G|---------------------------------------------------------------|
D|---------------------------------------------------------------|
A|---------------------------------------------------------------|
E|---------------------------------------------------------------|

e|--12-11-9-11-----9-11-14--|
B|-------------12-----------|
G|--------------------------| (repeat all)
D|--------------------------|
A|--------------------------|
E|--------------------------|


*****************************************************************

| /  slide up
| \  slide down
| h  hammer-on
| p  pull-off
| ~  vibrato
| +  harmonic
| x  Mute note

*****************************************************************
Suggest correction
comments
print report bad tab
18 comments total. Showing first comments.
0 reply
Willsuf 10 Jan 12, 2007 10:04 AM

great tab mate but think it needs capo on 1st fret?

0 reply
Voilentchair 10 Jan 14, 2007 02:09 AM

Thats a great song and great tab. Some one needs to tab the mandolin part. It will be very similar to the guitar part but more manodliny if you get my meaning.

0 reply
Von-Bing 125 Jan 23, 2007 07:02 AM

This tab should be rated higher

guest
You may want to rate the tab now too:
select rating
Wanna post a correction for this tab? Suggest correction