Oops, an error
Loading. Please wait.

Whistle For The Choir Bass Tab

version 2
version 2

Whole song

Interactive

10,573 views 6 this week
2 commentsread comments
1 2 3 4 5
x 13
add to favorites
launch autoscroll
font size
0
reset
guitar tuner
Autoscroll
slow
fast
+/-
esc
set tempo
stop
Help us to improve Ultimate-Guitar.com Take our survey!
×
Author
Difficulty
novice
                 "Whistle For The Choir" By The Fratellis

                        Tabbed By Jack Barnett

This is my first tab please rate.


Listen to the song to work out when to come in. Or come in at(0:42)

The bass part basicaly just goes like this.

G|-----------------------------------------------------------|
D|----1-2-----2-----6-----6--6-5-4-----4---------4-----------|
A|-2-4-----2-----2-----6------------4-----4---2-----2--------|
E|-----------------------------------------------------------|
But You Repeat Throughout Song

There are some bits where the bassiat stops, also listen to the track to work out timing.

There is one part where the bassit changes key i am work on that to work it out so watch this space!  :-)
Suggest correction
comments
print report bad tab
2 comments total.
0 reply
SoftParade1967 502 Jun 14, 2008 01:14 PM

Its great except there no key change. So i tabbed it out.

G---------------------------------|
D---------------------------------|
A-5--5--9---9-9-8-7--7---7-------4|
E--5--5---9--------7--7-5--5--5-7-|

0 reply
SoftParade1967 502 Jun 14, 2008 01:14 PM

hope that helped. other than that man great tab!

guest
You may want to rate the tab now too:
select rating
Wanna post a correction for this tab? Suggest correction