Oops, an error
Loading. Please wait.

Whistle For The Choir Tab

version 2
version 2

Whole song

Interactive

6,144 views 6 this week
1 commentread comment
1 2 3 4 5
2 more votes to show rating
add to favorites
launch autoscroll
font size
0
reset
how to read this tab
guitar tuner
×
Best way to learn
"Whistle For The Choir"
Autoscroll
slow
fast
+/-
esc
set tempo
stop
Author
Difficulty
-------------------------------------------------------------------------------
                             Whistle For The Choir - Fratellis
-------------------------------------------------------------------------------

Tuning: Standard

e|--0--4--3--2--7------------------------------------------------------------|
B|--0--4--3--2--7------------------------------------------------------------|
G|--1--4--3--2--8------------------------------------------------------------|
D|--2--6--5--4--9------------------------------------------------------------|
A|--2--6--5--4--9------------------------------------------------------------|
E|--0--4--3--2--7------------------------------------------------------------|

e|---------------------------------------------------------------------------|
B|---------------------------------------------------------------------------|
G|--9-9-9-9-9-9-13-11-9-11-8-8-8-8-8-8-11-9-8-9-6-6-6-6-6-6-6-6-6-6-6-6------|
D|---------------------------------------------------------------------------|
A|---------------------------------------------------------------------------|
E|---------------------------------------------------------------------------|

e|---------------------------------------------------------------------------|
B|---------------------------------------------------------------------------|
G|---------------------------------------------------------------------------|
D|--9--7--6--4---------------------------------------------------------------|
A|--9--7--6--4---------------------------------------------------------------|
E|--7--5--4--2---------------------------------------------------------------|

e|--0--4--3--2--7------------------------------------------------------------|
B|--0--4--3--2--7------------------------------------------------------------|
G|--1--4--3--2--8------------------------------------------------------------|
D|--2--6--5--4--9------------------------------------------------------------|
A|--2--6--5--4--9------------------------------------------------------------|
E|--0--4--3--2--7------------------------------------------------------------|

| /  slide up
| \  slide down
| h  hammer-on
| p  pull-off
| ~  vibrato
| +  harmonic
| x  Mute note
===============================================================================
Suggest correction
Give kudos to tab author, rate the tab!
1 2 3 4 5
comments
print report bad tab
1 comment total.
0 reply
ptansani 61 Jun 30, 2008 08:13 PM

I'd barely call this a tab for this song. your missing the bridge, flow order, and strumming pattern. And the solo is tabbed an octave lower.

guest
You may want to rate the tab now too:
select rating
Wanna post a correction for this tab? Suggest correction