Oops, an error
Loading. Please wait.

Absolute bass

version 1
version 1

Whole song

Interactive

148 views 1 this week
1 commentread comment
1 2 3 4 5
x 4
add to favorites
×
Save as Personal and add changes to this tab that will be seen only by you. Learn more ›
×
You can save this tab as Personal to edit and correct it or add notes. All changes will be seen only by you. Learn more »
launch autoscroll
font size
0
reset
guitar tuner
edit
Autoscroll
slow
fast
+/-
esc
set tempo
stop
Author
Difficulty
--------------------------------------------------------------------------
                            Artist - The Fray
                          ********************
                             Song - Absolute 
                            *****************
                           Album - Fray (2009)
                          *********************
                           Tabbed By - Ayreon77
                          **********************
--------------------------------------------------------------------------
Tuning = Standard             


Tune the E string down to D#


00:20
VERSE 1
********
    Cause  she   barely   even   knows   him   but  if  she  could  see inside
G |----------------------------|-------------------------|-----------------|-------------------------|
D |--s-------------------------|-------------------------|-----------------|-------------------------|
A |-6\-11-11-11-11-11-11-11-11-|-10-10-10-10-10-10-10-10-|-----------------|-------------------------|
D#|----------------------------|-------------------------|-9-9-9-9-9-9-9-9-|-12-12-12-12-12-12-12-12-|

   Everything  is  quiet  as  she  waits  to  tell  him  who  she  is
G |-----------------|-----------------|-------------------|-----------------|
D |-----------------|-----------------|-------------------|-----------------|
A |-----------------|-----------------|--s----------------|-----------------|
D#|-5-5-5-5-5-5-5-5-|-4-4-4-4-4-4-4-4-|-4\9-9-9-9-9-9-9-9-|-7-7-7-7-7-7-7-7-|

        Is this all- we- get-   to be ab--solute
G |---------------------------------------------------------|
D |-------------------------------------------------------s-|
A |-----8---6-----------s------------13-13-13-13-13-13-13-\-|
D#|-9----------7---9---9\-14----12--------------------------|


---------------------------
00:48
CHORUS
*******
   Quiet but Im sure there is something here
G |---------------|------------------------------|
D |---------------|------------------------------|
A |---------------|------------------------------|
D#|-5-5--5--5-0-0-|-5-7-9-9--7-9-9--9-7--7-7-7-7-|

   Tell me everything because I want to hear,  Absolute
G |-----------------|------------------------------|-----|
D |-----------------|------------------------------|-----|
A |-----------------|------------------------------|--s--|
D#|-4-5-5--5--5-0-0-|-5-7-9-9--7-9-9--9-7--7-7-7-7-|-7\9-|


---------------------------
01:04
VERSE 2
********
   Its a kiss sits upon  on  her   lips   that   waits  for   planes   and   battle   ships
G |----------------------------|-------------------------|-----------------|-------------------------|
D |--s-------------------------|-------------------------|-----------------|-------------------------|
A |-6\-11-11-11-11-11-11-11-11-|-10-10-10-10-10-10-10-10-|-----------------|-------------------------|
D#|----------------------------|-------------------------|-9-9-9-9-9-9-9-9-|-12-12-12-12-12-12-12-12-|

   She   wants   to  be   a   dancer   and   he   has   got a   picture
G |-----------------|---------------------------|-----------------|---------------------------|
D |-----------------|---------------------------|-----------------|---------------------------|
A |-----------------|--s------------------------|-----------------|--s---------------10-10----|
D#|-5-5-5-5-5-5-5-5-|-5\16-16-16-16-16-16-16-16-|-9-9-9-9-9-9-9-9-|-9\12-12-12-12-12-------12-|

    On his wall and its a sailor     in     a     new port   every night
G |-----------------|---------------------------|-----------------|---------------------------|
D |-----------------|---------------------------|-----------------|---------------------------|
A |-----------------|--s------------------------|-----------------|--s---------------10-10----|
D#|-5-5-5-5-5-5-5-5-|-5\16-16-16-16-16-16-16-16-|-9-9-9-9-9-9-9-9-|-9\12-12-12-12-12-------12-|

   Yet  man  was  born  to   trouble       like     sparks    fly     upwards innocent
G |-------------------------|----------------------|-----------------|---s----------------|
D |-------------------------|----------------------|-10-10--10-10-10-|-10\13-13--13-13-13-|
A |-11-11-11-11-11-11-11-11-|-10-10-10-13-13-10-10-|-----------------|--------------------|
D#|-------------------------|----------------------|-----------------|--------------------|

01:32
        Is this all- we- get-   to be ab--solute
G |---------|--------------------------------------|
D |---------|--------------------------------------|
A |-----s---|---------------8---6------------------|
D#|-12--\14-|-12---7---9------------7-7-7--7-7-7-7-|


---------------------------
01:46
CHORUS
*******
   Quiet but Im sure there is something here
G |---------------|------------------------------|
D |---------------|------------------------------|
A |---------------|------------------------------|
D#|-5-5--5--5-0-0-|-5-7-9-9--7-9-9--9-7--7-7-7-7-|

   Tell me everything because I want to hear,  Absolute
G |-----------------|------------------------------|
D |-----------------|------------------------------|
A |-----------------|------------------------------|
D#|-4-5-5--5--5-0-0-|-5-7-9-9--7-9-9--9-7--7-7-7-7-|


   Quiet but Im sure there is something here
G |---------------|------------------------------|
D |---------------|------------------------------|
A |---------------|------------------------------|
D#|-5-5--5--5-0-0-|-5-7-9-9--7-9-9--9-7--7-7-7-7-|

   Tell me everything because I want to hear,  Absolute
G |-----------------|---------------------------------|
D |-----------------|---------------------------------|
A |-----------------|-------------------------------s-|
D#|-4-5-5--5--5-0-0-|-5-7-9-9--7-9-9--9-7--7-7-7-7-7\-|


---------------------------
02:16
SOLO
*****
G |------------------------|-----------------------------|-------------------------|
D |------------------------|-----------------------------|-----------------------s-|
A |------------------------|-------------------s---------|-------------8-8--8-8-8\-|
D#|-0-5-5--7-7--2-2--2-0-2-|-0-5-5--7-7--9-9--9\16-16-16-|-0-5-5--7-7--------------|


---------------------------
02:26
BRIDGE
*******
All we are and all we want, 40 years come and gone, All we are in photographs, Will never be taken
G |------------------|---------------------|------------------|----------|
D |------------------|---------------3-1---|------------------|----------|
A |---------s------s-|-------------3-----3-|-------s--------s-|----------|
D#|-5-5--7-7\9-9-11\-|-5-5--5-2-2----------|-5-5--7\9-9--7-9\-|-5-5--0-2-|


---------------------------
02:40
PRE CHORUS
***********
Quiet but Im sure there is something here

Tell me everything cause I want to hear

---------------------------
02:54
CHORUS
*******
   Quiet but Im sure there is something here
G |------|---------------|------------------------------|
D |------|---------------|------------------------------|
A |-6--s-|---------------|------------------------------|
D#|---7\-|-5-5--5--5-0-0-|-5-7-9-9--7-9-9--9-7--7-7-7-7-|

   Tell me everything because I want to hear,  Absolute
G |-----------------|------------------------------|
D |-----------------|------------------------------|
A |-----------------|------------------------------|
D#|-4-5-5--5--5-0-0-|-5-7-9-9--7-9-9--9-7--7-7-7-7-|


   Quiet but Im sure there is something here
G |---------------|------------------------------|
D |---------------|------------------------------|
A |---------------|------------------------------|
D#|-5-5--5--5-0-0-|-5-7-9-9--7-9-9--9-7--7-7-7-7-|

   Tell me everything because I want to hear,  Absolute
G |-----------------|------------------------------|
D |-----------------|------------------------------|
A |-----------------|------------------------------|
D#|-4-5-5--5--5-0-0-|-5-7-9-9--7-9-9--9-7--7-7-7-7-|


---------------------------
03:21
OUTRO
******
G |--------h-------------|--------------------------------------|
D |-------5-6-6-6-5----s-|--------------------------------------|
A |-----------------6-6\-|------------------------------------s-|
D#|-5-5-0----------------|-5-7-9-9--7-9-9--9-11-11--9-11-11-11\-|


G |--------h-------------|------------------------------|---|
D |-------5-6-6-6-5----s-|------------------------------|---|
A |-----------------6-6\-|------------------------------|---|
D#|-5-5-0----------------|-5-7-9-9--7-9-9--9-7--7-7-7-7-|-5-|



ENJOY.............

            
            
Suggest correction
Creating personal tab
Creating personal tab
You can edit any tab online and save it as your Personal.

You can edit, replace or remove any tab part or add personal notes – all changes will be seen only by you.

Personal tabs can be accessed anytime from any device, even offline.
Learn more »
comments
print report bad tab
1 comment total.
0 reply
golfindolphin2002 10 Sep 09, 2017 11:18 PM

Great tab! thanks

guest
You may want to rate the tab now too:
select rating
Wanna post a correction for this tab? Suggest correction