Oops, an error
Loading. Please wait.

Heaven Forbid bass

133 views 1 this week
no commentswrite comment
1 2 3 4 5
x 3
add to favorites
×
Save as Personal and add changes to this tab that will be seen only by you. Learn more ›
×
You can save this tab as Personal to edit and correct it or add notes. All changes will be seen only by you. Learn more »
launch autoscroll
font size
0
reset
guitar tuner
edit
Autoscroll
slow
fast
+/-
esc
set tempo
stop
Author
Difficulty
--------------------------------------------------------------------------
                             Artist - The Fray
                           ********************
                           Song - Heaven Forbid   
                          **********************
                        Album - How To Save A Life
                       ****************************
                            Tabbed By - Ayreon77
                           **********************
--------------------------------------------------------------------------
Tuning = Standard             



00:10
INTRO
******
G|---------------|--------------|-----------|---------|
D|-6-6-6-4-------|-6-6-6-4------|-6-6-6-4---|---------|
A|----------6--4-|---------6--4-|---------6-|--b------|
E|---------------|--------------|-----------|-6--6--4-|


-------------------------
00:20
VERSE 1
********
Twenty years it’s breaking you down, Now that you understand there’s no one around
G|---------|---------------------|-----------------------|--------------------|
D|----6----|---------------------|-----------------------|--------------------|
A|-6-------|---------------------|-----------------------|------------b-------|
E|-------2-|------0------------0-|----------------2----2-|-----------6--6---4-|

Take a breath, just take a seat, You’re falling apart and tearing at the seams
G|---------|-----------------|---------------------|-----------------------|
D|----6----|-----------------|---------------------|-----------------------|
A|-6-------|-----------------|---------------------|-------b---------------|
E|-------2-|--------0------0-|----------2--------2-|------6------6-------4-|


-------------------------
NO BASS IN CHORUS
******************
Heaven Forbid you end up alone and don't know why
Hold on tight, wait for tomorrow you'll be alright

-------------------------
00:59
BREAK
******
G|---------------|--------------|-----------|---------|
D|-6-6-6-4-------|-6-6-6-4------|-6-6-6-4---|---------|
A|----------6--4-|---------6--4-|---------6-|--b------|
E|---------------|--------------|-----------|-6--6--4-|


-------------------------
01:09
VERSE 2
********
It’s on your face, is it on your mind, Would you care to build a house of your own
G|-------------|-------------------|-----------------------|---------------------|
D|------6------|-------------------|-----------------------|---------------------|
A|-6-----------|-------------------|-----------------------|------b--------------|
E|-----------2-|---------0-------0-|-------------2-------2-|-----6--------6----4-|

How much longer, how long can you wait, It’s like you wanted to go and give yourself away
G|---------|------------------------|-----------------------------|---------------------|
D|----6----|------------------------|-----------------------------|---------------------|
A|-6-------|------------------------|-----------------------------|--------------b------|
E|-------2-|--------------0-------0-|-----------------2---------2-|-------------6--6--4-|


-------------------------
NO BASS IN CHORUS
******************
Heaven Forbid you end up alone and don't know why
Hold on tight, wait for tomorrow you'll be alright

CHORUS
*******
01:48
       Heaven         Forbid  you  and up alone and don't know why
G|---------|---------|---------|---------|---------|---------|---------|-----------|
D|---------|---------|---------|---------|---------|---------|---------|-----------|
A|-4-4-4-4-|-4-4-4-4-|-1-1-1-1-|-1-1-1-1-|---------|---------|---------|------s--2-|
E|---------|---------|---------|---------|-4-4-4-4-|-4-4-4-4-|-0-0-0-0-|-0-0-2\4---|

       Hold on        tight, wait for   tomorrow you'll be    alright
G|---------|---------|---------|---------|---------|---------|---------|---------|
D|---------|---------|---------|---------|---------|---------|---------|---------|
A|-4-4-4-4-|-4-4-4-4-|-1-1-1-1-|-1-1-1-1-|---------|---------|---------|---------|
E|---------|---------|---------|---------|-4-4-4-4-|-4-4-4-4-|-0-0-0-0-|-0-0-0-0-|   All X2
                                          

-------------------------
02:08
BRIDGE
*******
It feels good (Is that reason enough for you).............................................
G|--------------------|---------------------|----------------------|---------------------|
D|--------------------|---------------------|----------------------|---------------------|
A|------------------s-|-----------4--4-4-s--|--------------------s-|-----------4-4-4-4-4-|
E|-0--0-2--2-4--4-4-\-|-0--0-2--2--------4\-|-0--0-2--2-4--4-4--4\-|-0--0-2--2-----------|


-------------------------
CHORUS
*******
02:27
       Heaven         Forbid  you  and up alone and don't know why
G|---------|---------|---------|---------|---------|---------|---------|-----------|
D|---------|---------|---------|---------|---------|---------|---------|-------2---|
A|-4-4-4-4-|-4-4-4-4-|-1-1-1-1-|-1-1-1-1-|---------|---------|---------|--s--2---2-|
E|---------|---------|---------|---------|-4-4-4-4-|-4-4-4-4-|-0-0-0-0-|-2\4-------|

       Hold on        tight, wait for   tomorrow you'll be    alright
G|---------|---------|---------|---------|---------|---------|---------|-----------|
D|---------|---------|---------|---------|---------|---------|---------|-------2---|
A|-4-4-4-4-|-4-0-4-0-|-1-1-1-1-|-1-1-1-1-|---------|---------|---------|--s--2---2-|
E|---------|---------|---------|---------|-4-4-4-4-|-4-4-4-4-|-0-0-0-0-|-2\4-------|

       Heaven         Forbid  you  and up alone and don't know why
G|---------|---------|---------|---------|---------|---------|---------|-----------|
D|---------|---------|---------|---------|---------|---------|---------|-------2---|
A|-4-4-4-0-|-4-0-4-0-|-1-1-1-1-|-1-1-1-1-|---------|---------|---------|--s--2---2-|
E|---------|---------|---------|---------|-4-4-4-4-|-4-4-4-4-|-0-0-0-0-|-2\4-------|

02:57
       Hold on        tight, wait for   tomorrow you'll be    alright..........
G|---------|---------|---------|---------|---------|---------|---------|---------|
D|---------|---------|---------|---------|---------|---------|---------|---------|
A|-4-4-4-0-|-4-0-4-0-|-1-1-1-1-|-1-1-1-1-|---------|---------|---------|---------|
E|---------|---------|---------|---------|-4-4-4-4-|-4-4-4-4-|-0-0-0-0-|-0-0-0-0-|


-------------------------
03:06
OUTRO
******
G|----------|------------|------------|-----------------|
D|----------|------------|------------|-----------------|
A|----------|--s---------|--s---------|-------2-----2---|
E|-00-0-0-0-|-1\2-22-2-2-|-2\4-44-4-4-|-4-2-4---4-4---4-|

                          Yeahhhhhhhh Out of this one
G|----------|------------|-------------------------|
D|----------|------------|-------------------------|
A|----------|--s-------2-|-2-4--2-4--2-4--2-4--4-2-|
E|-00-0-0-0-|-1\2-22-2---|-------------------------|

I  don’t  know   how  to  get  you, Out of this one
G|----------|------------|---------------------------|
D|----------|------------|---------------------------|
A|----------|--s---------|-----------------------2---|
E|-00-0-0-0-|-1\2-22-2-2-|-2-4--2-4--2-4--2-4--4---4-|

I  don’t  know   how  to  get  you, Out of this one
G|----------|------------|-------------------------|
D|----------|------------|-------------------------|
A|----------|--s-------2-|-2-4--2-4--2-4--2-4--4-2-|
E|-00-0-0-0-|-1\2-22-2---|-------------------------|

I  don’t  know   how  to  get  you, Out of this one
G|----------|------------|---------------------------|
D|----------|------------|---------------------------|
A|----------|--s---------|-----------------------2---|
E|-00-0-0-0-|-1\2-22-2-2-|-2-4--2-4--2-4--2-4--4---4-|

I  don’t  know   how  to  get  you, Out of this one
G|----------|------------|-----------------|
D|----------|------------|--h--------------|
A|----------|--s-------2-|-2-4-4-4-4-4-4-4-|
E|-00-0-0-0-|-1\2-22-2---|-----------------|



ENJOY...........

            
            
Suggest correction
Creating personal tab
Creating personal tab
You can edit any tab online and save it as your Personal.

You can edit, replace or remove any tab part or add personal notes – all changes will be seen only by you.

Personal tabs can be accessed anytime from any device, even offline.
Learn more »
Give kudos to tab author, rate the tab!
1 2 3 4 5
comments
print report bad tab
guest
You may want to rate the tab now too:
select rating
Wanna post a correction for this tab? Suggest correction