Oops, an error
Loading. Please wait.
We have an official How To Save A Life tab made by UG professional guitarists. Check out the tab »
×
73,119 views 69 this week
16 commentsread comments
1 2 3 4 5
x 53
add to favorites
×
Save as Personal and add changes to this tab that will be seen only by you. Learn more ›
×
You can save this tab as Personal to edit and correct it or add notes. All changes will be seen only by you. Learn more »
launch autoscroll
font size
0
reset
guitar tuner
edit
Autoscroll
slow
fast
+/-
esc
set tempo
stop
Author
Standard tuning - EADG

[Chorus], Starts at 0.39
G|-------------------------------------------------------|
D|-------------------------------------------------------|
A|-6~---8~---10~---13--12---6~---8~---10~----13--12--13~-|
E|-------------------------------------------------------|

[Verse] 1.03
G|-----------------------------------|
D|-----------------------------------| X4
A|-----------------------------------|
E|-6---6-6---5---5---3---3-3---5---5-|

[Chorus] 1.35
G|--------------------------------------------------|
D|--------------------------------------------------|
A|-6~---8~---10~---13--12---6~---8~---10~----13--12-|
E|--------------------------------------------------|

[Verse] 1.51
G|-----------------------------------|
D|-----------------------------------| X5
A|-----------------------------------|
E|-6---6-6---5---5---3---3-3---5---5-|

[Chorus] 2.30
G|------------------------|
D|------------------------| X3
A|-6~---8~---10~---13--12-|
E|------------------------|

G|-----------------------------|
D|-----------------------------|
A|-6~---8~---10~----13--12—13~-|
E|-----------------------------|

Pause

[Chorus] 3.19
G|------------------------|
D|------------------------| X3
A|-6~---8~---10~---13--12-|
E|------------------------|

G|-----------------------------|
D|-----------------------------|
A|-6~---8~---10~----13--12—13~-|
E|-----------------------------|

Its not 100% but i think it goes like that, sounds ok when you play along to the song, 
listen out for the bass drum beats

Any problems then just email me - adam.vaughan@hotmail.co.uk
Please rate it



************************************

| ~  Vibrato

************************************
Suggest correction
Creating personal tab
Creating personal tab
You can edit any tab online and save it as your Personal.

You can edit, replace or remove any tab part or add personal notes – all changes will be seen only by you.

Personal tabs can be accessed anytime from any device, even offline.
Learn more »
comments
print report bad tab
16 comments total. Showing first comments.
+2 reply
LeftHandLust 10 Mar 02, 2007 02:29 PM

don't listen to that guy. =D out of all the tabs (bass, powertab, guitar pro)your bass tab is the closest. the rest of them have just a bunch of repeated of eighth notes which is completely wrong

0 reply
MuDvAyNe_rOcKs 10 Mar 06, 2007 08:02 PM

yeah good tab man. 5*

0 reply
gr33nd4yr0ck5 10 Mar 13, 2007 07:34 PM

its the only bass tab for this song so it is the best i guess

guest
You may want to rate the tab now too:
select rating
Wanna post a correction for this tab? Suggest correction