Oops, an error
Loading. Please wait.

How To Save A Life Tab

version 1
35,870 views 27 this week
1 commentread comment
1 2 3 4 5
x 4
add to favorites
launch autoscroll
font size
0
reset
how to read this tab
guitar tuner
×
Best way to learn
"How To Save A Life"
Autoscroll
slow
fast
+/-
esc
set tempo
stop
Capo
3rd fret
TABBED BY: RYAN a.k.a. BIG NERD IN DISGUISE
==========

Hey, this is my first tab ever!!!! So please note this is not exactly right, but it 
nice and is pretty close to how the song is played. Cheers.


Capo 3
Std Tuning

INTRO
======

  |       G      |      D/F#    |      Em      |      D/F#            |
e|--------------------------------------------------------------------|
B|--------3--------------3--------------0--------------------3--------|
G|----0-----0--------2-----2----------0---0--------2-------2---2------|
D|------0-----0----0---0-----0------2-------2----0---0---0------------|
A|--------------2--------------0--2-----------2-----------------------|
E|--3--------------------------------------------------2--------------|

  |       G      |      D/F#    |      Em      |      D/F#            |
e|--------------------------------------------------------------------|
B|--------3--------------3--------------0--------------------3--------|
G|----0-----0--------2-----2----------0---0--------2-------2---2------|
D|------0-----0----0---0-----0------2-------2----0---0---0------------|
A|--------------2--------------0--2-----------2-----------------------|
E|--3--------------------------------------------------2--------------|

VERSE 1
========

  |       G      |      D/F#    |      Em      |      D/F#            |
e|--------------------------------------------------------------------|
B|--------3--------------3--------------0--------------------3--------|
G|----0-----0--------2-----2----------0---0--------2-------2---2------|
D|------0-----0----0---0-----0------2-------2----0---0---0------------|
A|--------------2--------------0--2-----------2-----------------------|
E|--3--------------------------------------------------2--------------|

Step one you say we need to talk, He walks you say sit down its just a talk


  |       G      |      D/F#    |      Em      |      D/F#            |
e|--------------------------------------------------------------------|
B|--------3--------------3--------------0--------------------3--------|
G|----0-----0--------2-----2----------0---0--------2-------2---2------|
D|------0-----0----0---0-----0------2-------2----0---0---0------------|
A|--------------2--------------0--2-----------2-----------------------|
E|--3--------------------------------------------------2--------------|

He smiles politely back at you, You stare politely right on through


       G        D/F#       Em       D/F#
e|--3333-333--2222-222--0000-000--222-22222---------------------------|
B|--3333-333--3333-333--0000-000--333-33333---------------------------|
G|--0000-000--2222-222--0000-000--222-22222---------------------------|
D|--0000-000--0000-000--2222-222--000-00000---------------------------|
A|--2222-222--0000-000--2222-222--000-00000---------------------------|
E|--3333-333--2222-222--xxxx-xxx--xxx-22222---------------------------|

Some sort of window to your right, As he goes left and you stay right

       G        D/F#       Em       D/F#
e|--3333-333--2222-222--0000-000--222-22222---------------------------|
B|--3333-333--3333-333--0000-000--333-33333---------------------------|
G|--0000-000--2222-222--0000-000--222-22222---------------------------|
D|--0000-000--0000-000--2222-222--000-00000---------------------------|
A|--2222-222--0000-000--2222-222--000-00000---------------------------|
E|--3333-333--2222-222--xxxx-xxx--xxx-22222---------------------------|

Between the lines of fear and blame, And you begin to wonder why you came

CHORUS
======

       C          D       Em       G    D
e|--0000-000--2222-222--0000-000--333-22222---------------------------|
B|--1111-111--3333-333--0000-000--333-33333---------------------------|
G|--0000-000--2222-222--0000-000--000-22222---------------------------|
D|--2222-222--0000-000--2222-222--000-00000---------------------------|
A|--3333-333--xxxx-xxx--2222-222--222-xxxxx---------------------------|
E|--0000-000--xxxx-xxx--xxxx-xxx--333-xxxxx---------------------------|

Where did I go wrong, I lost a friend, Somewhere along in the bitterness

       C          D       Em       G    D
e|--0000-000--2222-222--0000-000--333-22222---------------------------|
B|--1111-111--3333-333--0000-000--333-33333---------------------------|
G|--0000-000--2222-222--0000-000--000-22222---------------------------|
D|--2222-222--0000-000--2222-222--000-00000---------------------------|
A|--3333-333--xxxx-xxx--2222-222--222-xxxxx---------------------------|
E|--0000-000--xxxx-xxx--xxxx-xxx--333-xxxxx---------------------------|

And I would have stayed up with you all night, Had I known how to save a life

  |       G      |      D/F#    |      Em      |      D/F#            |
e|--------------------------------------------------------------------|
B|--------3--------------3--------------0--------------------3--------|
G|----0-----0--------2-----2----------0---0--------2-------2---2------|
D|------0-----0----0---0-----0------2-------2----0---0---0------------|
A|--------------2--------------0--2-----------2-----------------------|
E|--3--------------------------------------------------2--------------|


VERSE 2
=======

       G        D/F#       Em       D/F#
e|--3333-333--2222-222--0000-000--222-22222---------------------------|
B|--3333-333--3333-333--0000-000--333-33333---------------------------|
G|--0000-000--2222-222--0000-000--222-22222---------------------------|
D|--0000-000--0000-000--2222-222--000-00000---------------------------|
A|--2222-222--0000-000--2222-222--000-00000---------------------------|
E|--3333-333--2222-222--xxxx-xxx--xxx-22222---------------------------|

  Let him know that you know best, Cause after all you do know best

        G        D/F#       Em       D/F#
e|--3333-333--2222-222--0000-000--222-22222---------------------------|
B|--3333-333--3333-333--0000-000--333-33333---------------------------|
G|--0000-000--2222-222--0000-000--222-22222---------------------------|
D|--0000-000--0000-000--2222-222--000-00000---------------------------|
A|--2222-222--0000-000--2222-222--000-00000---------------------------|
E|--3333-333--2222-222--xxxx-xxx--xxx-22222---------------------------|

    Try to slip past his defense, Without granting innocence

        G        D/F#       Em       D/F#
e|--3333-333--2222-222--0000-000--222-22222---------------------------|
B|--3333-333--3333-333--0000-000--333-33333---------------------------|
G|--0000-000--2222-222--0000-000--222-22222---------------------------|
D|--0000-000--0000-000--2222-222--000-00000---------------------------|
A|--2222-222--0000-000--2222-222--000-00000---------------------------|
E|--3333-333--2222-222--xxxx-xxx--xxx-22222---------------------------|

    Lay down a list of what is wrong, The things you’ve told him all along

        G        D/F#       Em       D/F#
e|--3333-333--2222-222--0000-000--222-22222---------------------------|
B|--3333-333--3333-333--0000-000--333-33333---------------------------|
G|--0000-000--2222-222--0000-000--222-22222---------------------------|
D|--0000-000--0000-000--2222-222--000-00000---------------------------|
A|--2222-222--0000-000--2222-222--000-00000---------------------------|
E|--3333-333--2222-222--xxxx-xxx--xxx-22222---------------------------|

    And pray to God he hears you, And pray to God he hears you


CHORUS
======
       C          D       Em       G    D
e|--0000-000--2222-222--0000-000--333-22222---------------------------|
B|--1111-111--3333-333--0000-000--333-33333---------------------------|
G|--0000-000--2222-222--0000-000--000-22222---------------------------|
D|--2222-222--0000-000--2222-222--000-00000---------------------------|
A|--3333-333--xxxx-xxx--2222-222--222-xxxxx---------------------------|
E|--0000-000--xxxx-xxx--xxxx-xxx--333-xxxxx---------------------------|

Where did I go wrong, I lost a friend, Somewhere along in the bitterness

       C          D       Em       G    D
e|--0000-000--2222-222--0000-000--333-22222---------------------------|
B|--1111-111--3333-333--0000-000--333-33333---------------------------|
G|--0000-000--2222-222--0000-000--000-22222---------------------------|
D|--2222-222--0000-000--2222-222--000-00000---------------------------|
A|--3333-333--xxxx-xxx--2222-222--222-xxxxx---------------------------|
E|--0000-000--xxxx-xxx--xxxx-xxx--333-xxxxx---------------------------|

And I would have stayed up with you all night, Had I known how to save a life

  |       G      |      D/F#    |      Em      |      D/F#            |
e|--------------------------------------------------------------------|
B|--------3--------------3--------------0--------------------3--------|
G|----0-----0--------2-----2----------0---0--------2-------2---2------|
D|------0-----0----0---0-----0------2-------2----0---0---0------------|
A|--------------2--------------0--2-----------2-----------------------|
E|--3--------------------------------------------------2--------------|


VERSE 3
=======

        G        D/F#       Em       D/F#
e|--3333-333--2222-222--0000-000--222-22222---------------------------|
B|--3333-333--3333-333--0000-000--333-33333---------------------------|
G|--0000-000--2222-222--0000-000--222-22222---------------------------|
D|--0000-000--0000-000--2222-222--000-00000---------------------------|
A|--2222-222--0000-000--2222-222--000-00000---------------------------|
E|--3333-333--2222-222--xxxx-xxx--xxx-22222---------------------------|

    As he begins to raise his voice, You lower yours and grant him one last choice

        G        D/F#       Em       D/F#
e|--3333-333--2222-222--0000-000--222-22222---------------------------|
B|--3333-333--3333-333--0000-000--333-33333---------------------------|
G|--0000-000--2222-222--0000-000--222-22222---------------------------|
D|--0000-000--0000-000--2222-222--000-00000---------------------------|
A|--2222-222--0000-000--2222-222--000-00000---------------------------|
E|--3333-333--2222-222--xxxx-xxx--xxx-22222---------------------------|

    Drive until you lose the road, Or break with the ones you’ve followed

        G        D/F#       Em       D/F#
e|--3333-333--2222-222--0000-000--222-22222---------------------------|
B|--3333-333--3333-333--0000-000--333-33333---------------------------|
G|--0000-000--2222-222--0000-000--222-22222---------------------------|
D|--0000-000--0000-000--2222-222--000-00000---------------------------|
A|--2222-222--0000-000--2222-222--000-00000---------------------------|
E|--3333-333--2222-222--xxxx-xxx--xxx-22222---------------------------|

    He will do one of two things, He will admit to everything

        G        D/F#       Em       D/F#
e|--3333-333--2222-222--0000-000--222-22222---------------------------|
B|--3333-333--3333-333--0000-000--333-33333---------------------------|
G|--0000-000--2222-222--0000-000--222-22222---------------------------|
D|--0000-000--0000-000--2222-222--000-00000---------------------------|
A|--2222-222--0000-000--2222-222--000-00000---------------------------|
E|--3333-333--2222-222--xxxx-xxx--xxx-22222---------------------------|

    Or he’ll say he’s just not the same, And you’ll begin to wonder why you came

CHORUS
======
       C          D       Em       G    D
e|--0000-000--2222-222--0000-000--333-22222---------------------------|
B|--1111-111--3333-333--0000-000--333-33333---------------------------|
G|--0000-000--2222-222--0000-000--000-22222---------------------------|
D|--2222-222--0000-000--2222-222--000-00000---------------------------|
A|--3333-333--xxxx-xxx--2222-222--222-xxxxx---------------------------|
E|--0000-000--xxxx-xxx--xxxx-xxx--333-xxxxx---------------------------|

Where did I go wrong, I lost a friend, Somewhere along in the bitterness

       C          D       Em       G    D
e|--0000-000--2222-222--0000-000--333-22222---------------------------|
B|--1111-111--3333-333--0000-000--333-33333---------------------------|
G|--0000-000--2222-222--0000-000--000-22222---------------------------|
D|--2222-222--0000-000--2222-222--000-00000---------------------------|
A|--3333-333--xxxx-xxx--2222-222--222-xxxxx---------------------------|
E|--0000-000--xxxx-xxx--xxxx-xxx--333-xxxxx---------------------------|

And I would have stayed up with you all night, Had I known how to save a life

       C          D       Em       G    D
e|--0000-000--2222-222--0000-000--333-22222---------------------------|
B|--1111-111--3333-333--0000-000--333-33333---------------------------|
G|--0000-000--2222-222--0000-000--000-22222---------------------------|
D|--2222-222--0000-000--2222-222--000-00000---------------------------|
A|--3333-333--xxxx-xxx--2222-222--222-xxxxx---------------------------|
E|--0000-000--xxxx-xxx--xxxx-xxx--333-xxxxx---------------------------|

 Where did I go wrong, I lost a friend, Somewhere along in the bitterness

       C          D       Em       G    D
e|--0000-000--2222-222--0000-000--333-22222---------------------------|
B|--1111-111--3333-333--0000-000--333-33333---------------------------|
G|--0000-000--2222-222--0000-000--000-22222---------------------------|
D|--2222-222--0000-000--2222-222--000-00000---------------------------|
A|--3333-333--xxxx-xxx--2222-222--222-xxxxx---------------------------|
E|--0000-000--xxxx-xxx--xxxx-xxx--333-xxxxx---------------------------|

 And I would have stayed up with you all night, Had I known how to save a life

  |       G      |      D/F#    |      Em      |      D/F#            |
e|--------------------------------------------------------------------|
B|--------3--------------3--------------0--------------------3--------|
G|----0-----0--------2-----2----------0---0--------2-------2---2------|
D|------0-----0----0---0-----0------2-------2----0---0---0------------|
A|--------------2--------------0--2-----------2-----------------------|
E|--3--------------------------------------------------2--------------|


...chorus repeats a couple more times and then just play the intro out.


This is a tab for that little piano riff that happens periodically thruought the song
----------------------|
-3-3-3-3----1-0-------|
---------2------0-----|
----------------------|
----------------------|
----------------------|
Suggest correction
comments
print report bad tab
1 comment total.
0 reply
stuartbartley 21 Apr 12, 2007 04:37 PM

not accurate

guest
You may want to rate the tab now too:
select rating
Wanna post a correction for this tab? Suggest correction