Oops, an error
Loading. Please wait.
We have an official How To Save A Life tab made by UG professional guitarists. Check out the tab »
×
20,536 views 1 this week
3 commentsread comments
1 2 3 4 5
x 7
add to favorites
×
Save as Personal and add changes to this tab that will be seen only by you. Learn more ›
×
You can save this tab as Personal to edit and correct it or add notes. All changes will be seen only by you. Learn more »
launch autoscroll
font size
0
reset
guitar tuner
edit
Autoscroll
slow
fast
+/-
esc
set tempo
stop
Author
Difficulty
Band: The Fray
Song: How To Save A Life

Tabbed for: Bass
Tuning: EADG

This song is great! It's been in the TV serie "Scrubs"... Love both of it!
It has a nice piano play and it sound great when all the instruments comes together on 
chorus! If you have a band and like this kind of music, I recomand you to play this song! 
here we go, listen to it for the right timing.

                    The Fray - How To Save A Life
Intro: (00:00)
-	Piano –

Verse 1: (00:08)
- Piano –

Chorus: (00:39)
G|-----------------|-----------------|-----------------|
D|-----------------|-----------------|-----------------|
A|-6-6-6-6-6-6-6-6-|-----------------|-----------------|
E|-----------------|-1-1-1-1-1-1-1-1-|-3-3-3-3-3-3-3-3-|

G|-----------------|
D|-----------------|
A|-1-1-1-1---------|    x2
E|---------1-1-1-1-|

Pre-verse: (00:55)
- Piano & Guitar –

Verse 2: (01:03)
G|--------|----|--------|----|--------|
D|--------|----|--------|----|--------|
A|-1--1-1-|-0--|--------|-0--|-1--1-1-|  x4
E|--------|----|-3--3-3-|----|--------|

Chorus: (01:34)
G|-----------------|-----------------|-----------------|
D|-----------------|-----------------|-----------------|
A|-6-6-6-6-6-6-6-6-|-----------------|-----------------|
E|-----------------|-1-1-1-1-1-1-1-1-|-3-3-3-3-3-3-3-3-|

G|-----------------|
D|-----------------|
A|-1-1-1-1---------|    x2
E|---------1-1-1-1-|

Pre-verse: (01:50)
G|--------|----|--------|----|--------|
D|--------|----|--------|----|--------|
A|-1--1-1-|-0--|--------|-0--|-1--1-1-|
E|--------|----|-3--3-3-|----|--------|
Verse 3: (01:58)
G|--------|----|--------|----|--------|
D|--------|----|--------|----|--------|
A|-1--1-1-|-0--|--------|-0--|-1--1-1-| x4
E|--------|----|-3--3-3-|----|--------|

Chorus: (02:29)
G|-----------------|-----------------|-----------------|
D|-----------------|-----------------|-----------------|
A|-6-6-6-6-6-6-6-6-|-----------------|-----------------|
E|-----------------|-1-1-1-1-1-1-1-1-|-3-3-3-3-3-3-3-3-|

G|-----------------|
D|-----------------|
A|-1-1-1-1---------|    x4
E|---------1-1-1-1-|

Bridge: (03:01)
- Piano –

Chrous: (03:16)
G|-----------------|-----------------|-----------------|
D|-----------------|-----------------|-----------------|
A|-6-6-6-6-6-6-6-6-|-----------------|-----------------|
E|-----------------|-1-1-1-1-1-1-1-1-|-3-3-3-3-3-3-3-3-|

G|-----------------|
D|-----------------|
A|-1-1-1-1---------|    x4
E|---------1-1-1-1-|

Outro: (03:49)
- Piano & Drums -

Thomas Lundesgaard, Norway
Suggest correction
Creating personal tab
Creating personal tab
You can edit any tab online and save it as your Personal.

You can edit, replace or remove any tab part or add personal notes – all changes will be seen only by you.

Personal tabs can be accessed anytime from any device, even offline.
Learn more »
comments
print report bad tab
3 comments total.
+4 reply
SoftParade1967 512 Jan 22, 2008 02:31 PM

awesome man!

+6 reply
airsoftjake 10 May 26, 2009 08:24 PM

Flyin i thought you were speaking another language
LEARN HOW TO SPELL

guest
You may want to rate the tab now too:
select rating
Wanna post a correction for this tab? Suggest correction