Oops, an error
Loading. Please wait.

Look After You Bass Tab

version 1
version 1

Whole song

Interactive

5,134 views 1 this week
no commentswrite comment
1 2 3 4 5
excellent!
x 3
add to favorites
launch autoscroll
font size
0
reset
guitar tuner
Autoscroll
slow
fast
+/-
esc
set tempo
stop
Help us to improve Ultimate-Guitar.com Take our survey!
×
-------------------------------------------------------------------------------
Look After You – The Fray
-------------------------------------------------------------------------------

Tabbed By :hahakid23	
e-mail:fire_stillburn@hotmail.com	 

Tuning:EADG

(0.01~0.37)
G|---------------------------------------------------------------------------|
D|---------------------------------------------------------------------------|
A|----5------------9-------7------5------------9-------7------5--------------|
E|----------5---------------------------5------------------------------------|
(0.38~1.02)
G|---------------------------------------------------------------------------|
D|---------------------------------------------------------------------------|
A|----------------------------------------2222-4444-555555-------------------|
E|-5555-4444-2222-0000--55555-4444-22222-------------------------------------|
(1.03~1.33)
G|---------------------------------------------------------------------------|
D|----5----------------------------------------------------------------------|
A|-----------------9-------7------5------------9-------7------5--------------|
E|----------5---------------------------5------------------------------------|
(1.34~2.00)
G|---------------------------------------------------------------------------|
D|---------------------------------------------------------------------------|
A|----------------------------------------2222-4444-555555-2222-4444---------|
E|-5555-4444-2222-0000--55555-4444-22222-------------------------------------|
(2.01~2.12)
G|---------------------------------------------------------------------------|
D|---------------------------------------------------------------------------|
A|9999-12121212------------------9999-12121212-------------------------------|
E|--------------1010101010101010---------------1010101010101010--------------|
(2.13~2.29)
G|---------------------------------------------------------------------------|
D|---------------------------------------------------------------------------|
A|-----9-------12------------------------------------------------------------| x3
E|--------------------10-----------------------------------------------------|
(2.31~2.38)
G|---------------------------------------------------------------------------|
D|---------------------------------------------------------------------------|
A|-9999----12121212----------------------------------------------------------|
E|-------------------1010101010101010--------~5------------------------------|
(2.47~End)
G|---------------------------------------------------------------------------|
D|---------------------------------------------------------------------------|
A|9999-12121212------------------9999-12121212-------------------------------|
E|--------------1010101010101010---------------1010101010101010--------------|


| /  slide up
| \  slide down
| h  hammer-on
| p  pull-off
| ~  vibrato
| +  harmonic
| x  Mute note
===============================================================================
comments
We did not receive enough feedback on this tab! Please rate:
print report bad tab
1 2 3 4 5
I want to post or [tab]
guest
You may want to rate the tab now too:
select rating
Please do not post tabs as comments. Select "correction" instead!