Oops, an error
Loading. Please wait.
We have Chord Pro version of Over My Head.
It's the closest thing you can get to the original song and it has interactive parts. Check out the tab »
×
5,641 views 6 this week
2 commentsread comments
1 2 3 4 5
x 3
add to favorites
×
Save as Personal and add changes to this tab that will be seen only by you. Learn more ›
launch autoscroll
font size
0
reset
guitar tuner
Autoscroll
slow
fast
+/-
esc
set tempo
stop
Author
-----------------------------------------------------------------------------
			Over my head - The Fray
-----------------------------------------------------------------------------

Tabbed By : Timbo279

i felt like tryin to figure out what the bass is really playing as i dont think the 
bass tabs are satisfying. the second bridge is probably wrong, as the bassist is jumping all 
the fretboard and i cant pick it up perfectly, so here it is.

                  1+2+3+4+ 1+2+3+4+ 1+2+3+4+ 1+2+3+4+ 1+2+3+4+ 1+2+3+4+
 verse1 with    G|--------|--------|--------|--------|--------|--------|
 tacet until    D|--------|3--3----|repeat 2|--------|3-------|--------|
"...its [GOTTA] A|4--44--6|-33-6--3|measures|4--44--6|-3333333|44443333|
    be..."      E|-44-44--|-----66-|--------|-44--44-|--------|--------|

                  1+2+3+4+
                G|--------|
                D|11111111|
                A|--------|
                E|--------|

                  1+2+3+4+ 1+2+3+4+ 1+2+3+4+ 1+2+3+4+
                G|--------|--------|--------|--------|
 Chorus         D|--------|3-3-----|--------|--------|   repeat
                A|4-4-----|----6-6-|4-4-----|4-4-6-6-|entire line
                E|----4-4-|--------|----4-4-|--------|

                  1+2+3+4+ 1+2+3+4+
                G|--------|--------|
 post chorus    D|--------|3--3----|repeat 2
                A|4--44--6|-33-6--3|measures
                E|-44--44-|-----66-|

                  1+2+3+4+ 1+2+3+4+ 1+2+3+4+ 1+2+3+4+ 1+2+3+4+ 1+2+3+4+
                G|--------|--------|--------|--------|--------|--0-10--|
verse 2         D|--------|3-------|----repeat 2-----|--------|11-1--31|
                A|4-------|----3---|----measures-----|44443333|--------|
                E|--------|--------|-----[twice]-----|--------|--------|

                  1+2+3+4+ 1+2+3+4+ 1+2+3+4+ 1+2+3+4+ 1+2+3+4+ 1+2+3+4+
                G|--------|--------|--------|--------|--------|--------|
                D|--------|3--3----|repeat 2|--------|3-------|--------|
                A|4--44--6|-33-6--3|measures|4--44--6|-3333333|44443333|
                E|-44-44--|-----66-|--------|-44--44-|--------|--------|

                  1+2+3+4+
                G|--------|
                D|11111111|
                A|--------|
                E|--------|

                  1+2+3+4+ 1+2+3+4+ 1+2+3+4+ 1+2+3+4+
                G|--------|--------|--------|--------|
 Chorus         D|--------|3-3-----|--------|--------|   repeat
                A|4-4-----|----6-6-|4-4-----|4-4-6-6-|entire line
                E|----4-4-|--------|----4-4-|--------|  [twice]

                  1+2+3+4+ 1+2+3+4+ 1+2+3+4+ 1+2+3+4+ 1+2+3+4+ 1+2+3+4+
                G|--------|--------|--------|--------|--------|--------|
 bridge 1       D|--------|--------|repeat 2|repeat 2|--------|--------|
                A|4-------|--------|measures|measures|1-------|1-------|
                E|--------|1---4---|--------|--------|--------|--------|

                  1+2+3+4+ 1+2+3+4+ 1+2+3+4+ 1+2+3+4+ 1+2+3+4+ 1+2+3+4+
                G|--------|--------|--------|--------|--------|33333333|
 verse 3        D|--------|3--3----|repeat 2|repeat 2|--------|--------|
                A|4--44--4|-33-33--|measures|measures|11111111|--------|
                E|-44--44-|------44|--------|--------|--------|--------|

                  1+2+3+4+ 1+2+3+4+ 1+2+3+4+ 1+2+3+4+ 1+2+3+4+ 1+2+3+4+
                G|--------|--------|--------|--------|--------|--------|
 bridge 2       D|--------|--------|--------|--------|--------|--------|
                A|--------|--------|--------|--------|--------|--------|
                E|4-------|--------|--------|--------|--------|--------|

                  1+2+3+4+ 1+2+3+4+ 1+2+3+4+ 1+2+3+4+ 1+2+3+4+ 1+2+3+4+
                G|--------|--------|--------|--------|repeat 2|--------|
                D|--------|--------|--------|--------|measures|--------|
                A|--------|--------|4--44--4|13311333|-[three-|4--44--4|
                E|--------|--------|-44--44-|--------|-times]-|-44--44-|

                  1+2+3+4+
                G|--------|
                D|--------|
                A|133143--|
                E|------64|

                  1+2+3+4+ 1+2+3+4+ 1+2+3+4+ 1+2+3+4+
                G|--------|--------|--------|--------|
 Chorus         D|--------|3-3-----|--------|--------|   repeat
                A|4-4-----|----6-6-|4-4-----|4-4-6-6-|entire line
                E|----4-4-|--------|----4-4-|--------|

                  1+2+3+4+ 1+2+3+4+
                G|--------|--------|
 post chorus    D|--------|3--3----|repeat 2
                A|4--44--6|-33-6--3|measures
                E|-44--44-|-----66-| [twice]

                  1+2+3+4+
                G|--------|
  exit riff     D|--------|  let ring and fade
                A|4-------|
                E|--------|


     that was it it was a bit fuzzy in the middle but you can figure that part out if 
want to learn it. Thanks.
Suggest correction
Give kudos to tab author, rate the tab!
1 2 3 4 5
comments
print report bad tab
2 comments total.
0 reply
Chili Pepper 17 71 Apr 27, 2007 04:03 PM

not as good as your other tab (Message in A Bottle)
it's OK

0 reply
timbo279 80 Jun 15, 2007 03:45 PM

well i tried

guest
You may want to rate the tab now too:
select rating
Wanna post a correction for this tab? Suggest correction