Oops, an error
Loading. Please wait.

Over My Head Cable Car Bass Tab

version 1
version 1

Whole song

Interactive

9,395 views 6 this week
no commentswrite comment
1 2 3 4 5
1 last vote to show rating
add to favorites
launch autoscroll
font size
0
reset
guitar tuner
Autoscroll
slow
fast
+/-
esc
set tempo
stop
Help us to improve Ultimate-Guitar.com Take our survey!
×
Over My Head (Cable Car)
The Fray
Bass Tab
Tabbed by DisturbedFxcker

[:I don't think it's perfect but blah blah blah 
If there are any mistakes please leave a comment and i'll change it ASAP:]


Start in the middle of Verse 1 when Isaac sings "it's gotta be..."

G|--------|--------|
D|--------|3--3----|  [x2]
A|4--44--6|-33-6--3|
E|-44--44-|-----66-|

G|--------|--------|--------|--------|
D|--------|3-------|--------|11111111|
A|4--44--6|-3333333|44443333|--------|
E|-44--44-|--------|--------|--------|

Chorus

G|--------|--------|--------|--------|
D|--------|3333----|--------|--------|   [x2]
A|444-----|----6666|4444----|44446666|
E|----4444|--------|----4444|--------|

Post Chorus 

G|--------|--------|
D|--------|3--3----|  [x2]
A|4--44--6|-33-6--3|
E|-44--44-|-----66-|

Verse 2

G|--------|--------|
D|--------|3-------|  [x3]
A|4-------|----3---|
E|--------|--------|

G|--------|--0-10--|
D|--------|11-1--31|
A|44443333|--------|
E|--------|--------|

G|--------|--------|
D|--------|3--3----|  [x2]
A|4--44--6|-33-6--3|
E|-44--44-|-----66-|

G|--------|--------|--------|--------|
D|--------|3-------|--------|11111111|
A|4--44--6|-3333333|44443333|--------|
E|-44--44-|--------|--------|--------|

Chorus

G|--------|--------|--------|--------|
D|--------|3333----|--------|--------|   [x2]
A|444-----|----6666|4444----|44446666|
E|----4444|--------|----4444|--------|

Bridge

G|--------|--------|     |--------|--------|
D|--------|--------| [x3]|--------|--------|
A|4-------|--------|     |1-------|1-------|
E|--------|1---4---|     |--------|--------|

Verse 3 (i guess)


G|--------|--------|                  G|--------|--------|         
D|--------|3--3----|   OR    --->     D|--------|--------|  
A|4--44--4|-33-33--|   this is        A|44444444|----4444|
E|-44--44-|------44|   easier         E|--------|1111----| 

G|--------|33333333|
D|--------|--------|
A|11111111|--------|
E|--------|--------|

Second Bridge

G|--------|--------|--------|--------|--------|--------|
D|--------|--------|--------|--------|--------|--------|
A|--------|--------|--------|--------|--------|--------|
E|4-------|--------|--------|--------|--------|--------|

G|--------|--------|--------|--------|
D|--------|--------|--------|--------|  [x3]
A|--------|--------|4--44--4|13311333|
E|--------|--------|-44--44-|--------|

G|--------|
D|--------|
A|4--44--4|
E|-44--44-|

G|--------|
D|--------|
A|133143--|
E|------64|

Chorus

G|--------|--------|--------|--------|
D|--------|3333----|--------|--------|   [x2]
A|444-----|----6666|4444----|44446666|
E|----4444|--------|----4444|--------|

Post Chorus 

G|--------|--------|
D|--------|3--3----|  [x2]
A|4--44--6|-33-6--3|
E|-44--44-|-----66-|

Last note [...let it ring and fade...]

G|--------|
D|--------|  [
A|4-------|
E|--------|
Suggest correction
Give kudos to tab author, rate the tab!
1 2 3 4 5
comments
print report bad tab
guest
You may want to rate the tab now too:
select rating
Wanna post a correction for this tab? Suggest correction