Oops, an error
Loading. Please wait.

Over My Head Cable Car Tab

version 1
version 1

Solo

Interactive

6,826 views 1 this week
4 commentsread comments
1 2 3 4 5
1 last vote to show rating
add to favorites
launch autoscroll
font size
0
reset
how to read this tab
guitar tuner
Autoscroll
slow
fast
+/-
esc
set tempo
stop
Help us to improve Ultimate-Guitar.com Take our survey!
×
Author
Difficulty
intermediate
These notes sound correct, but I can't figure out exactly how he does the 
yet.

e---------------------------------------|
b-----------------10--------9-----------|
g--------11-------------------9p7s6---9-|
d-7-9-11----12s11----11p9s7---------9---|
a---------------------------------------|
e---------------------------------------|
Suggest correction
Give kudos to tab author, rate the tab!
1 2 3 4 5
comments
print report bad tab
4 comments total. Showing first comments.
0 reply
af2w131f 20 Jul 26, 2006 12:29 AM

go to youtube.com and look up the fray over my head. theres a live performance you can watch on Letterman. It shows the guitarist in view when the solo comes. You might be able to tab it from there. It doesn't look like this is right.

0 reply
asdfasdfasdfasd 10 Nov 08, 2006 12:14 AM

sounds like a completely different song

0 reply
Naik345 10 Dec 30, 2007 08:21 AM

cool tab but i play it like
this


E|-----1-----3-----|
B|-----1----2-1-2-1-----1
-----4-2-1-2-4---| THEN
REPEAT
G|-1-3-----3-----|
D|-----|
A|-----
-----|
E|

guest
You may want to rate the tab now too:
select rating
Wanna post a correction for this tab? Suggest correction