Oops, an error
Loading. Please wait.

Over My Head Cable Car Bass Tab

version 2
version 2

Whole song

Interactive

5,114 views 6 this week
no commentswrite comment
1 2 3 4 5
excellent!
x 4
add to favorites
launch autoscroll
font size
0
reset
guitar tuner
Autoscroll
slow
fast
+/-
esc
set tempo
stop
Help us to improve Ultimate-Guitar.com Take our survey!
×
Author
-------------------------------------------------------------------------------
                             Over My Head (Cable Car) – The Fray
-------------------------------------------------------------------------------

Tabbed By :Ledzepjpj
e-mail:

Tuning:standard

UPDATED: Since i did this tab a looooong time ago I had mentally corrected a lot of stuff and finally decided 
to come back here and update this tab with my corrections as well as make it a bit easier to follow.

Come in right after “its gotta be”
G|-------------------------------------------------------------------------------------------------------------|
D|------6-6----------------------------6-6--------------8h10--10-10--------6-6---------------------------------|
A|4-4-4-—---4-4-6-8-8-8----------4-4-4-----4-4-6--8-8-8--------------4-4-4-----4-4-6-8-8-8---------------------|
E|---------------------8-8-8-8-8-----------------------------------------------------------8-8-8-8-4-6-6-6-6---

G|---------------------------|
D|----------------6p5-5------|
A|---------6-6--6----6-------|
E|-4-4-4-4-------------------|


Then this is the chorus, do it twice
G|-----------------------------------------------------------|
D|-----------------------------------------------------------|
A|--4-4-------------------------4-4----------------6-6-6-----|
E|---4--4-4-4--0h1-1-0-4-3-1-0---4--4-4-4-0h-1-1-1-----------|

Then it goes into this:
G|------------------------------------------------------------------------------|
D|------------------------------------------------------------------------------|
A|-4-4-4-------------------------3-4-4-4-------------------------3-4(let ring)--|
E|-------4-4-4-4-0-1-1-1-4-4-4-4---------4-4-4-4-0-1-1-1-4-4-4-4----------------|

Then this is the slow part:
G|-----------------5--5-----------------------------------------|
D|----------------------------------------------------5-6p5-----|
A|--8------3-4---8------4---8----------------------6-6-6---6-3--|
E|-----8----------------------8-8--6-6-6-6-4-4-4-4--------------|
Then back into
G|-------------------------------------------------------------------------------------------------------------|
D|-------6-6---------------------------6-6-------------10-10-8-----------6-6-----------------------------------|
A|-4-4-4-----4-4-6-8-8-8---------4-4-4-----4-4-6-8-8-8---------10--4-4-4-----4-4-6-8-8-8-----------------------|
E|-----------------------8-8-8-8---------------------------------------------------------8-8-8-8-4-6-6-6-6-----|

G|-------------------------|
D|---------------5-6-5-5---|
A|---------6-6-6------6----|
E|-4-4-4-4-----------------|

Now do the chorus again four times

Then:
G|---------------------------------------------------------------------------|
D|--------------------------------------------7-8--8-8-8---------------------|
A|-4----------4------------4-----------1-------------------------------------|
E|----1---4-------1---4--------1---4--4--------------------------------------|

G|-------------------------------------------------------------------------------------------------------------|
D|------------------------------------------------------------------------------------------------------8888888|
A|--4---4--4--4-------------------3-4--4--4--4---------1-1-1-1-1-4--4--4--4---------3-3--------11111111/-------|
E|----4------4--4-1-1-1-4-4-4-4-4-----4--4--4--4-1-1-1-------------4--4--4--4-1-1-1-----0-1-0------------------|

Rest a bit, then after the little break, these are elevens and thirteen’s
G|----------------13-13-13------------------------------------|
D|----------------11-11-11—-----------------------------------|
A|-------------------------11-11-11-11-8-8-8-10-10---------------|
E|-------------------------------------------------11-11-11-------|

G|-----------------------------------------------|
D|-----13—---11p10----10----11-10-8—--10-8-------|
A|--11----11-------11-----8---------6------10----|
E|-----------------------------------------------|

Then repeat the chorus twice
 Then do this until the song ends:
G|------------------------------------|
D|----------------------—-------------|
A|------6---4p3-3----4-3-1---3-1------|
E|-----4-4-----4---1-------1-----4----|

| /  slide up
| \  slide down
| h  hammer-on
| p  pull-off
| ~  vibrato
| +  harmonic
| x  Mute note
===============================================================================
Suggest correction
comments
print report bad tab
guest
You may want to rate the tab now too:
select rating
Please do not post tabs as comments. Select "correction" instead!