Oops, an error
Loading. Please wait.

Over My Head Tab

version 1
version 1

Whole song

Interactive

27,361 views 6 this week
4 commentsread comments
1 2 3 4 5
accurate
x 5
add to favorites
launch autoscroll
font size
0
reset
how to read this tab
guitar tuner
Autoscroll
slow
fast
+/-
esc
set tempo
stop
Help us to improve Ultimate-Guitar.com Take our survey!
×
Author
Difficulty
novice
Over My Head Cable Car Tab by The Fray, www.Ultimate-Guitar.Com

STandard Tuning
Part 1:
e-------------------------------------------------------------|
b-------6------------8-----------------6-------------8--------|
g-----5---6-5-6-5--5---8-6-5-6-8-----5---6-5-6-5---5---8-6-5-6|
d-6-8-------------8--------------6-8-------------8------------|
a-------------------------------------------------------------|
e-------------------------------------------------------------|

Part 2:
e-------1-------------3-----------------1-------------3--------|
b-----1---2-1-2-1---1---4-2-1-2-4-----1---2-1-2-1---1---4-2-1-2|
g-1-3-------------3---------------1-3-------------3------------|
d--------------------------------------------------------------|
a--------------------------------------------------------------|
e--------------------------------------------------------------|
Suggest correction
comments
print report bad tab
4 comments total. Showing first comments.
0 reply
St.Jimmy13 37 wrote on September 14 2006, 06:01 pm

where the heck in this song is there a solo?!!! this tab sucks

0 reply
tonybassist13 10 wrote on March 16 2013, 09:07 pm

in 2:38 but the singer is singing to

0 reply
pro yoda 10 wrote on December 28 2006, 07:49 pm

i agree it sux like heak but nice try

guest
You may want to rate the tab now too:
select rating
Wanna post a correction for this tab? Suggest correction