Oops, an error
Loading. Please wait.

Over My Head Tab

version 2
version 2

Whole song

Interactive

6,494 views 1 this week
1 commentread comment
1 2 3 4 5
3 more votes to show rating
add to favorites
launch autoscroll
font size
0
reset
how to read this tab
guitar tuner
Autoscroll
slow
fast
+/-
esc
set tempo
stop
Help us to improve Ultimate-Guitar.com Take our survey!
×
Difficulty
novice
Artist: The Fray
Title: Over My Head
Tabs: stringping
Tuning: EADGBe


Don't see a correct tab for this. I think it got some head's scratching so this is
part of the song, or rather the soft bridge part.
Two ways to play it are tabbed out.


No.1
e|--------------------------------------------------|
B|-----6---9-----8----------------------------------|
G|----5-6p5-5s3s5-5h6p5s3s5-------------------------|
D|-6h8----------------------------------------------|
A|--------------------------------------------------|
E|--------------------------------------------------|


No.2
e|-----1---4---3------------------------------------|
B|----1-2p1-1-1-1h2p1-------------------------------|
G|-1h3-------3-------3s5----------------------------|
D|--------------------------------------------------|
A|--------------------------------------------------|
E|--------------------------------------------------|


Have fun.
Suggest correction
Give kudos to tab author, rate the tab!
1 2 3 4 5
comments
print report bad tab
1 comment total.
0 reply
St.Jimmy13 37 Feb 24, 2007 11:11 PM

where is there a solo in this song!!!!!???????

guest
You may want to rate the tab now too:
select rating
Wanna post a correction for this tab? Suggest correction