Oops, an error
Loading. Please wait.
We have Chord Pro version of Over My Head.
It's the closest thing you can get to the original song and it has interactive parts. Check out the tab »
×
14,379 views 30 this week
no commentswrite comment
1 2 3 4 5
x 9
add to favorites
launch autoscroll
font size
0
reset
guitar tuner
Autoscroll
slow
fast
+/-
esc
set tempo
stop
Author
Difficulty
intermediate
The Fray
Over My Head

Intro/1st Verse

G--------------------------------------|
D-------6-6-----6--------10-10-----10--|
A-4-4-4-----4-4----8-8-8-------8-8-----|   x3
E--------------------------------------|

Pre chorus

G--------------------------------------|
D-------------------------8-6----------|
A-----------------6-6-6-6-----8-6------|   x1
E-6-6-6-6-4-4-4-4----------------------|


Chorus

G-----6----------------10--------8---------|
D---6--6-----6------10---10----8---8-------|
A-4--------6---6--8----------6-------------|   x4
E--------4---------------------------------|

2nd Verse


G--------------------------------------|
D-------6-6-----6--------10-10-----10--|
A-4-4-4-----4-4----8-8-8-------8-8-----|   x2
E--------------------------------------|

G--------------------------------------|
D----------------10--------------------|
A--4------8----------------------------|   x3
E--------------------------------------|

G--------------------------------------|
D-------------------------8-6----------|
A-----------------6-6-6-6-----8-6------|   x1
E-6-6-6-6-4-4-4-4----------------------|

G--------------------------------------|
D-------6-6-----6--------10-10-----10--|
A-4-4-4-----4-4----8-8-8-------8-8-----|   x3
E--------------------------------------|

Pre chorus

G--------------------------------------|
D-------------------------8-6----------|
A-----------------6-6-6-6-----8-6------|   x1
E-6-6-6-6-4-4-4-4----------------------|


Chorus

G-----6----------------10--------8---------|
D---6--6-----6------10---10----8---8-------|
A-4--------6---6--8----------6-------------|   x8
E--------4---------------------------------|

1st Bridge

G----------       G-----3-----|
D----------       D---3-------|
A-4--------  x3   A-1---------|  x1
E---1--4---       E-----------|

G-----6----6-----------------|
D---6----6---3-3-3-3-6-6-6-6-|
A-4----4---------------------|  x3
E----------------------------|

G---------------------------|
D-------------6h8-8-8-8-8-8-|
A---------------------------| x1
E-6-6-6-6-6-6---------------|

Rest

2nd Brigde

G----------------------------------------|
D----------------------------------------|
A-------11-11-11-11-8-8-8-10-10-10-6-6-6-|  x2
E-9-9-9----------------------------------|

G-----------------------------------------------|
D------11h13----11-------------10-8-------8-6---|
A---11-------13----13-11h13--8------10--6-----8-|   x4
E-9---------------------------------------------|


Chorus

G-----6----------------10--------8---------|
D---6--6-----6------10---10----8---8-------|
A-4--------6---6--8----------6-------------|   x4
E--------4---------------------------------|

Outro

G--------------------------------------|
D-------6-6-----6--------10-10-----10--|
A-4-4-4-----4-4----8-8-8-------8-8-----|   x4
E--------------------------------------|

G------|
D------|
A---4--|
E------|
Suggest correction
comments
print report bad tab
guest
You may want to rate the tab now too:
select rating
Wanna post a correction for this tab? Suggest correction